Halo - Perfectly Still Chords & Tabs

 

Perfectly Still Chords & Tabs

Halo Chords & Tabs

Version: 1 Type: Tab 0 ratings
1 star 2 stars 3 stars 4 stars 5 stars
comments

Perfectly Still Tab

Band: Halo
Song: Perfectly Still
Album: Lunatic Ride
Tabber: Tymn Cross
 
Think that^Òs all I need.  Its all my own work, obviously.
 Hope its ok.
 
Perfectly Still ^Ö Halo.
 
Intro
Rhythm fig. 1
E |-------------------------------------------------|
B |-1-----1-----1-----1-----1-----1-----1-----1-----|
G |---2-----2-----2-----2-----2-----2-----2-----2^×-|
D |-----2-----2-----2-----2-----2-----2-----2-----2-|
A |-------------------------------------------------|
E |-------------------------------------------------|
 
Rhythm fig. 2
E |-------------------------------------------------|
B |-1-----1-----0-----0-----1-----1-----1-----1-----|
G |---2-----2-----1-----1-----2-----2-----2-----2---|
D |-----3-----3-----2-----2-----2-----2-----2-----2-|
A |-------------------------------------------------|
E |-------------------------------------------------|
 
 
Rhythm fig. 3
Piano arr. For guitar
E |-0-----0-----0-----0-----0-----0-----0-----------|
B |---1-----1-----1-----1-----1-----1-----1---3-1---|
G |-----2-----2-----2-----2-----2-----2-----2-----2-|
D |-------------------------------------------------|
A |-------------------------------------------------|
E |-------------------------------------------------|
 
E |-1-----1-----0-----0-----5-----5-----5-----5-----|
B |---1-----1-----0-----0-----5-----5-----5-----5---|
G |-----2-----2-----1-----1-----5-----5-----5-----5-|
D |-------------------------------------------------|
A |-------------------------------------------------|
E |-------------------------------------------------|
 
Order:
 
Intro:
Rhy. fig. 1
Rhy. Fig. 2
Rhy. Fig. 1-2 w/ 3
 
Verse:
Rhy. fig. 1-2 x2
 
Chorus:
Rhy. Fig. 2 x4
 
 
Intro
Verse
Chorus
Verse
Chorus
(Verse
Chorus)? ^Ö same as second verse, I think.
Ending (Rhy. Fig. 1-2 x1)
 
It^Òs a great song by a great band.  
Any comments, questions etc, email me at tymncross@hotmail.com.
[ Tab from: http://www.guitartabs.cc/tabs/h/halo/perfectly_still_tab.html ]
Comments