Halo - Flatlined At 323 Am Chords & Tabs

 

Flatlined At 323 Am Chords & Tabs

Halo Chords & Tabs

Version: 1 Type: Tab 0 ratings
1 star 2 stars 3 stars 4 stars 5 stars
comments

Flatlined At 323 Am Tab

   
Band: Halo
Song: Flatlined at 3:23am
Album: B-side to Neverending (I think.  B side to something, anyway.)
Tabber:  Tymn Cross
 
This is all my own work, and I think its 100% accurate.  
Sounds pretty darn good to me, anyway.
Lyrics are easy to work out from the CD, very clear.
 
Intro.
Clean sound, very slow and simple.
    F           C           E    
E |-----1-----1-----0-----0-----0-----0-----0-----0-|
B |-1-----1-----1-----1-----0-----0-----0-----0-----|
G |---2-----2-----0-----0-----1-----1-----1-----1---|
D |-------------------------------------------------|
A |-------------------------------------------------|
E |-------------------------------------------------|
Accent on notes on B string.
 
 
Verse.
    Am                      F           C
E |-----0-----0-----0-----0-----1-----1-----0-----0-|
B |-1-----1-----1-----1-----1-----1-----1-----1-----|
G |---2-----2-----2-----2-----2-----2-----0-----0---|
D |-------------------------------------------------|
    No...            Don^Òt...           Life, she just...
 
    Am                      E
E |-----0-----0-----0-----0-----0-----0-----0-----0-|
B |-1-----1-----1-----1-----0-----0-----0-----0-----|
G |---2-----2-----2-----2-----1-----1-----1-----1---|
D |-------------------------------------------------|
                            Died...
 
Repeat for second half of verse.
 
 
 
Chorus.
    F           C           E           Am
E |-----1-----1-----0-----0-----0-----0-----0-----0-|
B |-1-----1-----1-----1-----0-----0-----1-----1-----|
G |---2-----2-----0-----0-----1-----1-----2-----2---|
D |-------------------------------------------------|
          Stay...                 We^Òll wait...
 
    F           C           E
E |-----1-----1-----0-----0-----0-----0-----0-----0-|
B |-1-----1-----1-----1-----0-----0-----0-----0-----|
G |---2-----2-----0-----0-----1-----1-----1-----1---|
D |-------------------------------------------------|
          I want...
 
 
Verse 2 same as verse 1.
Chorus
 
Ending.
    Am                      E
E |-----0-----0-----0-----0-----0-----0-----0-----0-|
B |-1-----1-----1-----1-----0-----0-----0-----0-----|
G |---2-----2-----2-----2-----1-----1-----1-----1---|
D |-------------------------------------------------|
                                            Wish I^Òd...
 
    Am (hold)
E |-0---||
B |-1---||
G |-2---||
D |-----||
    You know.
 
 
There we go.  Simple, no?  Just keep the rhythm going.

[ Tab from: http://www.guitartabs.cc/tabs/h/halo/flatlined_at_323_am_tab.html ]
Comments