Halifax - Our Last Dance Chords & Tabs

 

Our Last Dance Chords & Tabs

Halifax Chords & Tabs

Version: 1 Type: Tab 0 ratings
1 star 2 stars 3 stars 4 stars 5 stars
comments

Our Last Dance Tab

e----------------------------------------------------------------------------|
b----------------------------------------------------------------------------|
g----------------9b-------------------9b---------------------9b--------------|
d------9-8-9-8-9----9-8-----9-8-9-8-9----10b-9-----9-8-9-8-9----9-8----9-8---|
a---0----------------------------------------------------------------------9-|
e-0--------------------------------------------------------------------------|

e------------|
b------------|
g------------|
d--11--11----|
a---X---X----|
e---9---9----|

e------------------------|       [Repeat]
b------------------------|
g------------------------|
d--11--9--11---11--9--7--|
a---X--X---X----X--X--X--|
e---9--7---9----9--7--5--|

Verse [Please listen to me October..//Your all the same..]
[ Tab from: http://www.guitartabs.cc/tabs/h/halifax/our_last_dance_tab.html ]
e------------------------------------------------------| [Repeat]
b------------------------------------------------------|
g------------------------------------------------------|
d--X-X--9--X-X--8--X-X--9--X--X--8-- play:[d--11--11---|
a--X-X-----X-X-----X-X-----X--X----- 2nd: [a---X---X---|
e--X-X-----X-X-----X-X-----X--X----- time:[e---9---9---|

Pre Chrous

e---------------------------| [Repeat]
b---------------------------|
g---------------------------|
d--11--9--11------11--9--7--|
a--11--9--11------11--9--7--|
e---9--7---9-------9--7--5--|

Chorus [Get me up and get me moving..]

e------------------------------------------------------------------| [Repeat]
b------------------------------------------------------------------|
g------------------------------------------------------------------|
d--11--9--11--7----11--9--11--7----9~--7~--X-X--9--9--X-X--11--11--|
a--11--9--11--7----11--9--11--7----9~--7~--X-X--9--9--X-X--11--11--|
e---9--7---9--5-----9--7---9---5---7~--5~--X-X--7--7--X-X---9---9--|

Bridge [How in the world could this ever happen..]

e----------------------------------------|[Repeat]
b----------------------------------------|
g----------------------------------------|
d--9~----7~----X-X--X-X--9--9--X-X--X-X--|
a--9~----7~----X-X--X-X--9--9--X-X--X-X--|
e--7~----5~----X-X--X-X--7--7--X-X--X-X--|


Intro
Verse
Pre-Chorus
Chorus
Verse
Pre-Chorus
Chorus
Bridge
Chorus
Verse
Comments