Halifax - Next Two Weeks Chords & Tabs

 

Next Two Weeks Chords & Tabs

Halifax Chords & Tabs

Version: 1 Type: Tab 0 ratings
1 star 2 stars 3 stars 4 stars 5 stars
comments

Next Two Weeks Tab

   
---------------------------------------------------------------------------
		The Next Two Weeks - Halifax
---------------------------------------------------------------------------
Tabbed by: Kevstar
Email:talk_tonight100@yahoo.co.uk

Tuning: Eb Ab Db Gb Bb Eb

          This is my faveroute Halifax song, it ROCKS!! 
          Could someone mail me the lyrics to this please.thanx.  


  INTRO AND VERSES

 Guitar 1 - only in the inro ( play the same as guitar 1 in the verses)

eb|-----------------------------------------------------------------------|
Bb|-----------------------------------------------------------------------|
Gb|--4-4-4-4-------------------------4-4-4-4------------------------------|
Db|--4-4-4-4-------------------------4-4-4-4------------------------------|
Ab|--2-2-2-2-------------------------2-2-2-2------------------------------|
Eb|-----------------------------------------------------------------------|

  Guitar 2

eb|--------------------------------------------------(------0)--(---------)|
Bb|--------------------------------------------------(-------)--(---------)|
Gb|----------2-2-2-2-------------------------2-2-2-2-(-------)OR(----11-11)|
Db|--4-4-4-4-0-0-0-0-2-2-2-2---------4-4-4-4-0-0-0-0-(-----2-)--(-2--9--9-)|
Ab|--2-2-2-2---------0-0-0-0-2-2-2-2-2-2-2-2---------(---2---)--(-2-------)|
Eb|--------------------------0-0-0-0-----------------(-0-----)--(-0-------)|


  Second Verse end bit 
   
eb|------------------------------------------------------------------------|
Bb|------------------------------------------------------------------------|
Gb|-----------2-2-2-2------------------------------------------------------|
Db|--4-4-4-4--0-0-0-0-------------------------2----------------------------|
Ab|--2-2-2-2----------2-----------4-----------0----------------------------|
Eb|-------------------0-let ring--2-let ring-------------------------------|


 Chorus- this is the only part im not sure about.#play this note at the 
 end of the second chorus when going to the outro part. 
[ Tab from: http://www.guitartabs.cc/tabs/h/halifax/next_two_weeks_tab.html ]
eb|------------------------------------------------------------------------|
Bb|------------------------------------------------------------------------|
Gb|------------------------------------------------------------------------|
Db|-4-4-4-4-7-7-7-7---------------------------------5-4--5-4h5p4-----------|
Ab|-2-2-2-2-5-5-5-5-7-7-7-7-7-7-7-7-2-2-2-2-4-4-4-4--------------5--2------|
Eb|-----------------5-5-5-5-5-5-5-5-0-0-0-0-2-2-2-2---------------#(3)#----|

eb|------------------------------------------------------------------------|
Bb|------------------------------------------------------------------------|
Gb|-4-4-4-4-7-7-7-7-9-9-9-9-9-9-9-9-6-6-6-6-7-7-7-7-7-6--7-6h7p6-----------|
Db|--------------------------------------------------------------7--4------|
Ab|-2-2-2-2-5-5-5-5-7-7-7-7-7-7-7-7-4-4-4-4-5-5-5-5------------------------|
Eb|------------------------------------------------------------------------|

 MIDDLE PART/OUTRO

   GUITAR 1 - Play this with a little overdrive in the "put yer wallet away" 
   part but then kick on the distortion in the "We need it, now were taking 
   it back" and carry on the progression in to the "the next two weeks i 
   wont be myself" part. 
eb|------------------------------------------------------------------------|
Bb|------------------------------------------------------------------------|
Gb|------------------------------------------------------------------------|
Db|------------------------------------------------------------------------|
Ab|-5-5-5-5-5-5-5-5-7-7-7-7-7-7-7-7-9-9-9-9-9-9-9-9-1111111112-12-12-12----|
Eb|-3-3-3-3-3-3-3-3-5-5-5-5-5-5-5-5-7-7-7-7-7-7-7-7-9-9-9-9-10-10-10-10--- |


   Guitar 2 - this comes in in the heavy bit.
eb|------------------------------------------------------------------------|
Bb|------------------------------------------------------------------------|
Gb|-7777666777766---7777666777766---7777666777766---999999911111141414-----|
Db|--------------77--------------77--------------77------------------------|
Ab|------------------------------------------------------------------------|
Eb|------------------------------------------------------------------------|

| /  slide up
| \  slide down
| h  hammer-on
| p  pull-off
| ~  vibrato
| +  harmonic
| x  Mute note
=========================================================================
Comments