Halifax - I Hate Your Eyes Chords & Tabs

 

I Hate Your Eyes Chords & Tabs

Halifax Chords & Tabs

Version: 2 Type: Tab 0 ratings
1 star 2 stars 3 stars 4 stars 5 stars
comments

I Hate Your Eyes Tab

   
----------------------------------------------------------------------------
			Halifax - I Hate Your Eyes - SOLO
----------------------------------------------------------------------------
Tabbed by: Kevstar
Email: talk_tonight100@yahoo.co.uk

Tuning: Eb Ab Db Gb Bb Eb    

listen to the record for accuracy with the bends, hammers and pulls. this is only a template

eb|------------------------------------------------------------------------
Bb|------------------------------------------------------------------------
Gb|-------------9--11b--11b--11b--11b--11b--11--9--9p8--8--9p8--8--9p8--8--|
Db|-/11--9--11-------------------------------------------------------------|
Ab|------------------------------------------------------------------------
Eb|------------------------------------------------------------------------|

eb|------------------------------------------------------------------------|
Bb|------------------------------------------------------------------------|
Gb|-------------9--11b--11b--11b--11b--11b--11--9--9p8--8--9p8--8--9p8--8--|
Db|-11p9-11-11-------------------------------------------------------------|
Ab|------------------------------------------------------------------------|
Eb|------------------------------------------------------------------------|
[ Tab from: http://www.guitartabs.cc/tabs/h/halifax/i_hate_your_eyes_tab_ver_2.html ]
eb|----------9-----9-----9-------------------------------------------------|
Bb|-------------------------12--9------------------------------------------|
Gb|-11p9-11b---11b---11b-----------11--9--8h9p8--8--8h11p8--8--8h9p8--8----|
Db|------------------------------------------------------------------------|
Ab|------------------------------------------------------------------------|
Eb|------------------------------------------------------------------------|

eb|-----------------------------------------9-----9-----9------------------|
Bb|--------------------------------------------------------12--9-----------|
Gb|--8h11p8--8--8h9p8--8--8h11p8--11p9--11b---11b---11b-----------11--9----|
Db|------------------------------------------------------------------------|
Ab|------------------------------------------------------------------------|
Eb|------------------------------------------------------------------------|

eb|-----------------------------------------------------9h12p9-9h12p9------|
Bb|---------------------------------9-9-9-9-12-12-12-12--------------------|
Gb|--8h9p8-8h9p8-8h9p8--11-11-11-11----------------------------------------|
Db|------------------------------------------------------------------------|
Ab|------------------------------------------------------------------------|
Eb|------------------------------------------------------------------------|

eb|--9h12p9-9h12p9---12///14-----------------------------------------------|
Bb|------------------------------------------------------------------------|
Gb|------------------------------------------------------------------------|
Db|------------------------------------------------------------------------|
Ab|------------------------------------------------------------------------|
Eb|------------------------------------------------------------------------|

| /  slide up
| \  slide down
| h  hammer-on
| p  pull-off
| ~  vibrato
| +  harmonic
| x  Mute note
===============================================================================
Comments