Halifax - Finished In A Day Chords & Tabs

 

Finished In A Day Chords & Tabs

Halifax Chords & Tabs

Version: 1 Type: Tab 0 ratings
1 star 2 stars 3 stars 4 stars 5 stars
comments

Finished In A Day Tab

   
----------------------------------------------------------------------------
			     Finished in a Day - Halifax
----------------------------------------------------------------------------
Tabbed by:Kev 
Email:talk_tonight100@yahoo.co.uk

		This is for Lauren

Tuning: E a d g b E 

   INTRO

e|------------------------------------------------------------------------|
B|------3-------3-------3-------3-----------------------------------------|
G|----0---0---0---0---0---0---0---0---------------------------------------|
D|--5-------5-------5-------4--------------repeated x amount of times-----|
A|------------------------------------------------------------------------|
E|------------------------------------------------------------------------|

---------------------------------------------------------------------

Guitar 1 carries on playing the little riff while guitar 2 plays: 

[ Tab from: http://www.guitartabs.cc/tabs/h/halifax/finished_in_a_day_tab.html ]
  VERSE 1                 CHORUS
 
    Em7   d?   cadd9         g   cadd9   Em7   d    cadd9
e|--3-----3-----3---|----|---3----3-------3----3-----3----|--------------|
B|--3-----3-----3---|----|---3----3-------3----3-----3----|--------------|
G|--0-----2-----0---|-x4-|---0----0-------0----2-----0----|--------------|
D|--2-----0-----2---|----|---0----2-------2----0-----2----|--x2----------|
A|--2-----------3---|----|---x----3-------2----------3----|--------------|
E|--0---------------|----|---3------------0---------------|--------------|
   "Cornerd with..."      "start back at start......." 
                         ( the riff stops here ) 

-------------------------------------------------------------------------
  
 VERSE 2
                                                 
e|------------------------------------------|-----------------------|
B|------------------------------------------|-----------------------|
G|-Em7 ----------D-------------cadd9--------|-x4--------------------|
D|-arrpeggiated--arrpeggiated--arrpeggiated-|-----------------------|
A|------------------------------------------|-----------------------|
E|------------------------------------------|-----------------------|

       -------------------
   
	CHORUS (as before)

       ------------------

	MID SECTION

e|----------x-x-x-x----------------------------------------|------------|
B|----------x-x-x-x----------------------------------------|------------|
G|----------x-x-x-x------9-\-7-7-7-/-9-\-5-5-5-/-7-/-9-----|--x4--------|
D|-2-2-2-2--x-x-x-x----------------------------------------|------------|
A|-2-2-2-2--x-x-x-x--7-\-5-5-5-/-7-\-3-3-3-/-5-/-7---------|------------|
E|-0-0-0-0--x-x-x-x----------------------------------------|------------|

       ---------------------

       OUTRO
   
     Same riff as the INTRO, with the verse chords underneath.

     Em7 d  cadd9 

------------------------------------------------------                  
| /  slide up
| \  slide down
| h  hammer-on
| p  pull-off
| ~  vibrato
| +  harmonic
| x  Mute note
===============================================================================
Comments