Halfcocked - I Lied Chords & Tabs

 

I Lied Chords & Tabs

Halfcocked Chords & Tabs

Version: 1 Type: Tab 0 ratings
1 star 2 stars 3 stars 4 stars 5 stars
comments

I Lied Tab

   
~ let ring
/ slide up

E|----------------------------------------|	
B|----------------------------------------|	
G|----------------------------------------|	
D|----------------------------------------| x6	
A|----------------------------------------|	
E|-0-0-0-3-0-0-0-0-0-0-0-0-0-5-5-6-7------|	

|-----------------------------------------|
|-----------------------------------------|
|-----------------------------------------|
|-----------------------------------------| x5
|-55-5-55-5-55-5-55/8---------------------| 
|-33-3-33-3-33-3-33/6---------------------|
[ Tab from: http://www.guitartabs.cc/tabs/h/halfcocked/i_lied_tab.html ]
|-----------------------------------------|		
|-----------------------------------------|	
|-----------------------------------------|	
|-666/7-777-777-777-----------------------| x2		
|-444/5-555-555-555-----------------------|	
|-----------------------------------------|	

|-----------------------------------------|
|-----------------------------------------|
|-----------------------------------------|
|-666/7-77/9~~~---------------------------|
|-444/5-55/7~~~---------------------------|
|-----------------------------------------|

This song kicks ass, I’ll try to finish it as soon as I can. The 
formula is pretty simple, you basically use these riffs throughout 
the song. There are short riffs from a second guitarist played, 
but you can probably figure them out.

-Scüb
Comments