Hale - The Day You Said Goodnight Chords & Tabs

 

The Day You Said Goodnight Chords & Tabs

Hale Chords & Tabs

Version: 1 Type: Tab 0 ratings
1 star 2 stars 3 stars 4 stars 5 stars
comments

The Day You Said Goodnight Tab

##################################################################################
# This file is the author's own work and represents their interpretation of the  #
# song. You may only use this file for private study, scholarship, or research.  #
##################################################################################

Hale - The Day You Said Goodnight

Intro, Verse 1:

e------------------------------------------------------------------------------l
b--------------4-5--2----------------4-5-2-2-2---------------------------------l
g—-9-9-9-9-9---4-4--2----9-9-9-9-9---4-4-2-2-2---6-6-4-4-4--2-2-2-2-2----------l
D--9-9-9-9-9---2-2--2----9-9-9-9-9---2-2-2-2-2---6-6-4-4-4--2-2-2-2-2----------l
A--7-7-7-7-7-------------7-7-7-7-7---------------4-4-2-2-2---------------------l
E------------------------------------------------------------------------------l


e------------------------------------------------------------------------------l
b--------------4-5--2-2-2------------------------------------------------------l
g—-9-9-9-9-9---4-4--2-2-2--------6-6-4-4-4--2-2-2-2-2--------------------------l
D--9-9-9-9-9---2-2--2-2-2--------6-6-4-4-4--2-2-2-2-2--------------------------l
A--7-7-7-7-7---------------------4-4-2-2-2-------------------------------------l
E------------------------------------------------------------------------------l

Guitar 2:


e------------------------------------------------------------------------------l
b—------------------4--5----2--------------------------4--5----2---------------l
g—-----------------------------------------------------------------------------l
D------------------------------------------------------------------------------l
A------------------------------------------------------------------------------l
E------------------------------------------------------------------------------l


Pre-chorus :

Guitar 1:
e------------------------------------------------------------------------------l
b------------------------------------------------------------------------------l
g—-6-6-6-6-6-2-2-2-2-2--4-4-4-4-4--2-2-2-2-2-----------------------------------l
D--6-6-6-6-6-2-2-2-2-2--4-4-4-4-4--2-2-2-2-2-----------------------------------l
A--4-4-4-4-4------------2-2-2-2-2----------------------------------------------l
E------------------------------------------------------------------------------l


e------------------------------------------------------------------------------l
b------------------------------------------------------------------------------l
g—-6-6-6-6-6-2-2-2-2-2--4-4-4-4-4-4-4-4----------------------------------------l
D--6-6-6-6-6-2-2-2-2-2--4-4-4-4-4-4-4-4----------------------------------------l
A--4-4-4-4-4------------2-2-2-2-2-2-2-2----------------------------------------l
E------------------------------------------------------------------------------l

GUITAR 2:


e------------------------------------------------------------------------------l
b-----5-4-0-------------------------------2s5-5--5-----0-5-4-0-----------------l
g—----------------------6-4----------------------------------------------------l
D--------------------------2---------------------------------------------------l
A------------------------------------------------------------------------------l
E------------------------------------------------------------------------------l



e------------------------------------------------------------------------------l
b-------5-4-0--------------------------------------2s5-5-5------7---7----------l
g—---------------------------6-4-----------------------------------------------l
D-------------------------------2----------------------------------------------l
A------------------------------------------------------------------------------l
E------------------------------------------------------------------------------l


Chorus :
Guitar 1:

e------------------------------------------------------------------------------l
b------------------------------------------------------------------------------l
g—-9-9-9-9-9--4-4-4-4-4--2-2-2-2-2--4-4-4-4-4----------------------------------l
D--9-9-9-9-9--4-4-4-4-4--2-2-2-2-2--4-4-4-4-4----------------------------------l
A--7-7-7-7-7--2-2-2-2-2-------------2-2-2-2-2----------------------------------l
E------------------------------------------------------------------------------l


e------------------------------------------------------------------------------l
b------------------------------------------------------------------------------l
g—-9-9-9-9-9--4-4-4-4-4--2-2-2-2-2---------------------------------------------l
D--9-9-9-9-9--4-4-4-4-4--2-2-2-2-2---------------------------------------------l
A--7-7-7-7-7--2-2-2-2-2--------------------------------------------------------l
E------------------------------------------------------------------------------l

Guitar 2:


e------------------------------------------------------------------------------l
b—4h5—---------------4h5—4h5---------------------------------------------------l
g—-----------------------------------------------------------------------------l
D------------------------------------------------------------------------------l
A------------------------------------------------------------------------------l
E------------------------------------------------------------------------------l



e------------------------------------------------------------------------------l
b—4h5—----------------4h5—4h5---------------------------0----------------------l
g—-----------------------------------------------------------------------------l
D------------------------------------------------------------------------------l
A------------------------------------------------------------------------------l
E------------------------------------------------------------------------------l


Verse 2:

e------------------------------------------------------------------------------l
b--------------4-5--2----------------4-5-2-2-2---------------------------------l
g—-9-9-9-9-9---4-4--2----9-9-9-9-9---4-4-2-2-2---6-6-4-4-4--2-2-2-2-2----------l
D--9-9-9-9-9---2-2--2----9-9-9-9-9---2-2-2-2-2---6-6-4-4-4--2-2-2-2-2----------l
A--7-7-7-7-7-------------7-7-7-7-7---------------4-4-2-2-2---------------------l
E------------------------------------------------------------------------------l


e------------------------------------------------------------------------------l
b--------------4-5--2-2-2------------------------------------------------------l
g—-9-9-9-9-9---4-4--2-2-2--------6-6-4-4-4--2-2-2-2-2--------------------------l
D--9-9-9-9-9---2-2--2-2-2--------6-6-4-4-4--2-2-2-2-2--------------------------l
A--7-7-7-7-7---------------------4-4-2-2-2-------------------------------------l
E------------------------------------------------------------------------------l

Guitar 2:

[ Tab from: http://www.guitartabs.cc/tabs/h/hale/the_day_you_said_goodnight_tab.html ]
e------------------------------------------------------------------------------l
b—---------4--5----2-------------------------4--5----2-------------------------l
g—-----------------------------------------------------------------------------l
D------------------------------------------------------------------------------l
A------------------------------------------------------------------------------l
E------------------------------------------------------------------------------l


Pre-chorus :

Guitar 1:
e------------------------------------------------------------------------------l
b------------------------------------------------------------------------------l
g—-6-6-6-6-6-2-2-2-2-2--4-4-4-4-4--2-2-2-2-2-----------------------------------l
D--6-6-6-6-6-2-2-2-2-2--4-4-4-4-4--2-2-2-2-2-----------------------------------l
A--4-4-4-4-4------------2-2-2-2-2----------------------------------------------l
E------------------------------------------------------------------------------l


e------------------------------------------------------------------------------l
b------------------------------------------------------------------------------l
g—-6-6-6-6-6-2-2-2-2-2--4-4-4-4-4-4-4-4----------------------------------------l
D--6-6-6-6-6-2-2-2-2-2--4-4-4-4-4-4-4-4----------------------------------------l
A--4-4-4-4-4------------2-2-2-2-2-2-2-2----------------------------------------l
E------------------------------------------------------------------------------l

GUITAR 2:


e------------------------------------------------------------------------------l
b-----5-4-0-------------------------------2s5-5--5-----0-5-4-0-----------------l
g—----------------------6-4----------------------------------------------------l
D--------------------------2---------------------------------------------------l
A------------------------------------------------------------------------------l
E------------------------------------------------------------------------------l


e------------------------------------------------------------------------------l
b-------5-4-0--------------------------------------2s5-5-5------7---7----------l
g—---------------------------6-4-----------------------------------------------l
D-------------------------------2----------------------------------------------l
A------------------------------------------------------------------------------l
E------------------------------------------------------------------------------l



Chorus :

Guitar 1:


e------------------------------------------------------------------------------l
b------------------------------------------------------------------------------l
g—-9-9-9-9-9--4-4-4-4-4--2-2-2-2-2--4-4-4-4-4----------------------------------l
D--9-9-9-9-9--4-4-4-4-4--2-2-2-2-2--4-4-4-4-4----------------------------------l
A--7-7-7-7-7--2-2-2-2-2-------------2-2-2-2-2----------------------------------l
E------------------------------------------------------------------------------l


e------------------------------------------------------------------------------l
b------------------------------------------------------------------------------l
g—-9-9-9-9-9--4-4-4-4-4--2-2-2-2-2---------------------------------------------l
D--9-9-9-9-9--4-4-4-4-4--2-2-2-2-2---------------------------------------------l
A--7-7-7-7-7--2-2-2-2-2--------------------------------------------------------l
E------------------------------------------------------------------------------l


Guitar 2:


e------------------------------------------------------------------------------l
b—4h5—---------------4h5—4h5---------------------------------------------------l
g—-----------------------------------------------------------------------------l
D------------------------------------------------------------------------------l
A------------------------------------------------------------------------------| 


e------------------------------------------------------------------------------l
b—4h5—----------------4h5—4h5---------------------------0----------------------l
g—-----------------------------------------------------------------------------l
D------------------------------------------------------------------------------l
A------------------------------------------------------------------------------l
E------------------------------------------------------------------------------l


Bridge:
e------------------------------------------------------------------------------l
b—4—4-4-4-4--5-5-5-5-5---------------------------------------------------------l
g—4-4-4-4-4--4-4-4-4-4--2-2-2-2-2-2-2-2-2-2------------------------------------l
D-2-2-2-2-2--2-2-2-2-2--2-2-2-2-2-2-2-2-2-2------------------------------------l
A------------------------------------------------------------------------------l
E------------------------------------------------------------------------------l



e------------------------------------------------------------------------------l
b—4—4-4-4-4--5-5-5-5-5---------------------------------------------------------l
g—4-4-4-4-4--4-4-4-4-4--2-2-2-2-2--4-4-4-4-4-----------------------------------l
D-2-2-2-2-2--2-2-2-2-2--2-2-2-2-2--4-4-4-4-4-----------------------------------l
A----------------------------------2-2-2-2-2-----------------------------------l
E------------------------------------------------------------------------------l


Chorus:

e------------------------------------------------------------------------------l
b------------------------------------------------------------------------------l
g—-9-9-9-9-9--4-4-4-4-4--2-2-2-2-2--4-4-4-4-4----------------------------------l
D--9-9-9-9-9--4-4-4-4-4--2-2-2-2-2--4-4-4-4-4----------------------------------l
A--7-7-7-7-7--2-2-2-2-2-------------2-2-2-2-2----------------------------------l
E------------------------------------------------------------------------------l


e------------------------------------------------------------------------------l
b------------------------------------------------------------------------------l
g—-9-9-9-9-9--4-4-4-4-4--2-2-2-2-2---------------------------------------------l
D--9-9-9-9-9--4-4-4-4-4--2-2-2-2-2---------------------------------------------l
A--7-7-7-7-7--2-2-2-2-2--------------------------------------------------------l
E------------------------------------------------------------------------------l


Bridge 2:

e------------------------------------------------------------------------------l
b—-5-4----5-4----------------5-4----5-4----------------------------------------l
g—-4-4-2--4-4-2--4-4-4-4-4---4-4-2--4-4-2----4-4-4-4-4--2----------------------l
D--2-2-2--2-2-2--4-4-4-4-4---2-2-2--2-2-2----4-4-4-4-4—-2----------------------l
A----------------2-2-2-2-2-------------------2-2-2-2-2-------------------------l
E------------------------------------------------------------------------------l


cooooooooooolllllllllllllbbbooooooooooooyyyyyyzzzzzzzzzzzzzzz band!!!!!!!
Comments