Hale - Take No Chords & Tabs

 

Take No Chords & Tabs

Hale Chords & Tabs

Version: 3 Type: Tab 0 ratings
1 star 2 stars 3 stars 4 stars 5 stars
comments

Take No Tab

Song title   : Take No
Band/Artist  : Hale
Tabbed by    : Angelino Cayabyab Estandian Jr. [aka Ace]
Email        : acetangent@yahoo.com
contact no   : 09163981421


Tuning: EADGBe (standard)

intro:

e|-----9-9-7--7-10-10-----------5-5-4-4-------------|
B|---------------------9-----------------5-5--------|
G|--------------------------------------------4-----|
D|--------------------------------------------------| 4x
A|--0------------------------4----------------------|
E|--------------------------------------------------|


verse:


e|----5----4------------------------------------|
B|----5----5------------------------------------|
G|----6----6------------------------------------|
D|----7----6---four times-----------------------|
A|----7----4------------------------------------|
E|----5----x------------------------------------|


refrain:

e|----5----4--------------|
B|----6----5--------------|
G|----7----6--------------|
D|----7----6---twice------|
A|----5----4--------------|
E|----x----x--------------|

intro again:
[ Tab from: http://www.guitartabs.cc/tabs/h/hale/take_no_tab_ver_3.html ]
e|-----9-9-7--7-10-10-----------5-5-4-4-------------|
B|---------------------9-----------------5-5--------|
G|--------------------------------------------4-----|
D|--------------------------------------------------| twice
A|--0------------------------4----------------------|
E|--------------------------------------------------|

bridge:

e|----5----4-------------------5--4--------------------|
B|----5----5-------------------6--5--------------------|
G|----6----6-------------------7--6--------------------|
D|----7----6---six times-------7--6---twice------------|
A|----7----4-------------------5--4--------------------|
E|----5----x-------------------x--x--------------------|

base part:

e|--------------------------------------------------------------------|
B|--------------------------------------------------------------------|
G|--------------------------------------------------------------------|
D|----------------------------------------2-----4---2-----2-----4---2-|
A|------4-----4---4-----4-----4---4---4-4---4-4---4---4-4---4-4---4---|
E|--5-5---5-5---5---5-5---5-5---5-------------------------------------|

end...

for coments and sugestions...email me at my frndster acount..
acetangent@yahoo.com
or txt me at 09163981421
Comments