Hale - Take No Chords & Tabs

 

Take No Chords & Tabs

Hale Chords & Tabs

Version: 1 Type: Tab 0 ratings
1 star 2 stars 3 stars 4 stars 5 stars
comments

Take No Tab

   
Take No - Hale
tabbed by: michelle francisco
Standard Tuning: EADGBe

[Intro] A-C#m
E|--9-9-7-7-10-10------------------------|
A|----------------9--9--10-10-9-9--------|
D|------------------9-9-----------9-9----|
G|------------------------------------9--| 4x
B|---------------------------------------|
e|---------------------------------------|

[Verse] A-C#m
E|--------|
A|--------|
D|-----6--|
G|--7--6--| 4x
B|--7--4--|
e|--5-----|

[Refrain] D-C#m
E|--------|
A|--------|
D|--7--6--|
G|--7--6--|
B|--5--4--|
e|--------|
[ Tab from: http://www.guitartabs.cc/tabs/h/hale/take_no_tab.html ]
[Intro] A-C#m
E|--9-9-7-7-10-10------------------------|
A|----------------9--9--10-10-9-9--------|
D|------------------9-9-----------9-9----|
G|------------------------------------9--| 2x
B|---------------------------------------|
e|---------------------------------------|

[Verse] A-C#m
E|--------|
A|--------|
D|-----6--|
G|--7--6--| 4x
B|--7--4--|
e|--5-----|

[Refrain] D-C#m
E|--------|
A|--------|
D|--7--6--|
G|--7--6--| 2x
B|--5--4--|
e|--------|

[Chorus] A-C#m
E|--------|
A|--------|
D|-----6--|
G|--7--6--| 2x
B|--7--4--|
e|--5-----|

[Bridge] A-C#m
E|--------|
A|--------|
D|-----6--|
G|--7--6--| 4x
B|--7--4--|
e|--5-----|

[Refrain] D-C#m
E|--------|
A|--------|
D|--7--6--|
G|--7--6--| 2x
B|--5--4--|
e|--------|

[Ad-Lib]

[Outro] A-C#m
E|--------|
A|--------|
D|-----6--|
G|--7--6--| 4x
B|--7--4--|
e|--5-----|

[End]
Comments