Hale - Kahit Pa Chords & Tabs

 

Kahit Pa Chords & Tabs

Hale Chords & Tabs

Version: 2 Type: Bass Tab 0 ratings
1 star 2 stars 3 stars 4 stars 5 stars
comments

Kahit Pa Bass Tab

KAHIT PA
by HALE
tabbed by: christer(SWiTCH'S BASSiST)

hellow po sa mga band mates ko!!!dei, flint, tein...kay maverick(lito) the man, keng
keng ng digipad, emil, teltel, ruth and tunay na founder!!!hehehe!! pati ung baby
ko..leizen...hehehe...oion sana rate nyo salamat!!!mabuhay ang OPM!!! ingat!
e_mail nyo ko: turateristics@yahoo.com

intro
G|----------------------------------------|  
D|----------------------------------------|
A|---7-----7\6--6h76h7--------------------| 2x
E|-----7h9-------------55555--------------|

verse
G|------------------10-9-----------------|  
D|-------------9-------------------------|
A|---7---7-------------------------------| 2x
E|-------------------------555-----------|

pre chorus
G|-----------------------------------------|  
D|----------------------7------7------7----|
A|--2\4-44444------------------------------| 2x (slapping ung chord A)
E|-------------------5----55---55----------|

G|-------------------------------------------------|  
D|-------------------------------------------------|
A|--2\4-44444--------------------------------------| 2x
E|-------------------55555-------77-99-10----------|

[ Tab from: http://www.guitartabs.cc/tabs/h/hale/kahit_pa_btab_ver_2.html ]
chorus
G|--------------------------------|-----------------------------|  
D|--------------------------------|-----------------------------|
A|77777--22222-------------(2x)---|-777-222-444-555/15151515\0--| 
E|--------------------55555-------|-----------------------------|
Pasok mo ulit intro pattern

verse 2

G|------------------10-9----------|  
D|-------------9------------------|
A|---7---7------------------------| 2x
E|-------------------------555----|
pre chorus
G|-----------------------------------------|  
D|----------------------7------7------7----|
A|--2\4-44444------------------------------| 2x (slapping ung chord A)
E|-------------------5----55---55----------|

G|---------------------------------------------|  
D|---------------------------------------------|
A|--2\4-44444----------------------------------| 2x
E|-------------------55555-------77-99-10------|


Chorus
G|--------------------------------|-----------------|  
D|--------------------------------|-----------------|
A|77777--22222-------------(2x)---|-777-222-444-555-| 
E|--------------------55555-------|-----------------|

then

G|-----------------------------------------|  
D|-----------77------------99--------------|  (2x)
A|-----------------------------------------| 
E|----5-------------7------------5555------|

bridge
G|---------------------------------------|  
D|---------------------------------------|
A|---999------121212------151515---------| (2x)
E----------------------------------------|

G|------------------------------------------------------|  
D|------------------------------------------------------|
A|---999------121212------151515-----171717---181818----| 
E-------------------------------------------------------|

Chorus
Comments