Hale - Here Tonight Chords & Tabs

 

Here Tonight Chords & Tabs

Hale Chords & Tabs

Version: 3 Type: Chords 0 ratings
1 star 2 stars 3 stars 4 stars 5 stars
comments

Here Tonight Chords

   
intro:(strum nio lang after each note)

e|----3------3------3-------------------|
B|----1------3------1-------------------|
G|----0------0------2-------------------|
D|----2------x----2-2----3-2-3-2-3-2----|
A|--3-3----2-2----0-0----3-3-3-3-3-3----|
E|-----------------------1-1-1-1-1-1----|


verse1:
   C     B        A       G    
     so long, to you, my love
           F       C     A     G
     don't be, afraid to runaway
   C   B           A    G
     i know you'll be okay
          F           C       A   G
     just take you're time to find
[ Tab from: http://www.guitartabs.cc/tabs/h/hale/here_tonight_crd_ver_3.html ]
chorus:
...........C               B
     but i need you here tonight
       A               F
     i need you here inside
       A               B
     i need you here tonight
        A                     F(pause)    (intro)
     i really really need you here,    tonight

 
verse2:ganun din
     
     made up my mind on this
     it's too late for me to hold you back
     maybe too short or tall to cry for you
     but i will anyway

verse3:still the same

     it's all my fault, to feel this way
     for you that day
     i know that i am, and i will
     always wrong, so wrong, so wrong


###########################################################################
chords:hindi ko alm tawag sa ganyang notes, yan na lang muna legend natin::
    C      B      A      G      F  
e|--3------3------3------3------3---|
B|--1------3------1------1------1---|
G|--0------0------2------0------2---|
D|--2------x------2------0------3---|
A|--3------2------0------2----------|
E|-----------------------3----------|


okay ba,, rate nio lang.. khit mababa ok lang..
e-mail nio for suggestions>>>>>>>>dishwalla84@yahoo.com


hi sa mga taga BSU........ECE department.....TIANO 02!!!!!!!!!!


I LIVE FOR MUSIC!!!!!!!!!!!!!!!!!!!!!!!!!!!!!!!!!!!!!!!Rocks on........
Comments