Hale - Day You Said Goodnight Chords & Tabs

 

Day You Said Goodnight Chords & Tabs

Hale Chords & Tabs

Version: 3 Type: Tab 0 ratings
1 star 2 stars 3 stars 4 stars 5 stars
comments

Day You Said Goodnight Tab

   
The Day You Said Goodnight - Hale
Tabbed by: francis Estacio
Friendster accounts:(frncs00@yahoo.com/underverse_the_band@yahoo.com)

Bago ang lintek na tab... bati muna!!! Ung banda ko! underverse! leo, nate, JM, roy.
astig tayo! Lhat ng batchm8s ko sa canossa calmba! Batch 04-05!! Lhat ng sophies,
clasm8s at frnds ko sa UPLB... lhat ng kakilala ko! lhat ng tga calmba! Tga los banos!
Canlubang! Mayapa! Parian! ung nanay ko, tatay ko, 2 ate ko saka ung aso namin! Saka ung
mga kukuha ng tab na to... laklakin nyo!


Intro (guitar 1)
E-B-A

Guitar 2 (ksabay ng rhythmns ni champ)

		E			B	  A
e|--------------------------------------------------------------------|
B|-------------5--5--5----------------4----5--------------------------|
G|----------------------------------------------6---------------------|
D|--------------------------------------------------------------------|
A|--------------------------------------------------------------------|
E|--------------------------------------------------------------------|

Verse
E-B-A
C#m-B-A
E-B-A
C#m-B-A

Guitar 2
		E			B	  A
e|--------------------------------------------------------------------|
B|-------------5----------------------4----5--------------------------|
G|----------------------------------------------6---------------------|
D|--------------------------------------------------------------------|
A|--------------------------------------------------------------------|
E|--------------------------------------------------------------------|

		C#m			B	  A
e|------------------------------------------------------7-------------|
B|-------------4--5----4---5--------------------4---5-----------------|
G|--------------------------------------------------------------------|
D|--------------------------------------------------------------------|
A|--------------------------------------------------------------------|
E|--------------------------------------------------------------------|


Pre-Chorus
C#m-A-F#m-B
C#m-A-F#m-B

Guitar 2

      C#m		A		F#m		  B
e|--------------------------------------------------------------------|
B|--------5--4------------5--4--5---------5--4--5----------5--4-------|
G|-----6--------4------6---------------6----------------6--------4----|
D|--------------------------------------------------------------------|
A|--------------------------------------------------------------------|
E|--------------------------------------------------------------------|


[ Tab from: http://www.guitartabs.cc/tabs/h/hale/day_you_said_goodnight_tab_ver_3.html ]
      C#m		A		F#m		  B
e|--------------------------------------------------------------7-----|
B|--------5--4------------5--4--5------5---------------5--5--5--------|
G|-----6--------4------6----------------------------------------------|
D|--------------------------------------------------------------------|
A|--------------------------------------------------------------------|
E|--------------------------------------------------------------------|


Chorus (guitar 1)
E-B-F#m-A-B
E-B-F#m slide to G#m-A

	*sa kasamaang palad walang solo yung chorus kaya banatan nyo na ng gitara prehu! Power 
n lng si guitar 2!*

Tapos intro chords ulit ksbay si guitar 2!

Tapos Verse ulit ksbay nnman si gitar 2!

Tapos Pre-chorus ulit!

Tapos Chorus ulit!

Refrain
C#m-B-A
C#m-B-F#m-A

*Wla ulit solo, pahinga muna si guitar 2*

sunod ung chorus nq gitara lng, chorus chords lng...

E-B-F#m-A-B

Tpos ung sa "to be, the life you gave me...." Eepal na ulit si guitar 2!

E-B-F#m slide to G#m-A (Guitar 1)

Guitar 2
    E	      B		    F#m       slide	   G#m     A
e|--------------------------------------------------------------------|
B|--4--5------4--5----------4--5-------------------------5------------|
G|------------------4-------------4------------------------------999--|
D|---------------------------------------------------------------999--|
A|--------------------------------------------------------------------|
E|--------------------------------------------------------------------|

Tpos ung sa 'she's already taken..." chorus chords lang din si guitar 1...

E-B-F#m-A-B
E-B-F#m slide to G#m-A

Guitar 2
    E	        B		 F#m             A	 B
e|--------------------------------------------------------------------|
B|--55-44------55--44------------55-44---------55--44--55-------------|
G|--------4------------4---------------4------------------------------|
D|--------------------------------------------------------------------|
A|--------------------------------------------------------------------|
E|--------------------------------------------------------------------|

    E          B                F#m      slide     G#m   A
e|-------------------------------------------------------7------------|
B|--55-44------55--44------------55-44-55-----------------------------|
G|--------4------------4----------------------------------------------|
D|--------------------------------------------------------------------|
A|--------------------------------------------------------------------|
E|--------------------------------------------------------------------|


Tatapos outro! Si Guitar 2 naman babanat lang ng distortion! ung distortion ni guitar 1 
lang!


e|-------------|--------------|
B|--4/--5/--4--|---4/--5------|
G|-------------|---------4----|
D|-------------|--------------|
A|-------------|--------------|
E|-------------|--------------|


Yan tapos na! any questions, comments, khit anu... txt nyoko... 09214378267! Or add 
sa frndster! frncs00@yahoo.com! Peru 95% cguradu ku d2 sa lintek na tab na to! Nyahaha
Comments