Hale - Day You Said Goodnight Chords & Tabs

 

Day You Said Goodnight Chords & Tabs

Hale Chords & Tabs

Version: 1 Type: Tab 0 ratings
1 star 2 stars 3 stars 4 stars 5 stars
comments

Day You Said Goodnight Tab

   
The Day You Said Goodnight - Hale
tabbed by: michelle francisco
Standard Tuning: EADGBE

[Intro] E-B-A
e|--0-0-0-0-0-0--0------0--|
B|--0-0-0-0-0-0--0------0--|
G|--9-9-9-9p8h9--6--or--2--|
D|--9-9-9-9-9-9--7------2--|
A|--7-7-7-7-X-X--7------0--|
E|--0-0-0-0-7-7--5------X--|

[Verse] E-B-A-C#m-B-A 2x
e|--0-0-0-0-0-0--0-0-0--0-0-0-0--0-0-0--0--|
B|--0-0-0-0-0-0--0-0-0--0-0-0-0--0-0-0--0--|
G|--9-9-9-9p8h9--6-6-6--6-6-4-4--2-2-2-----|
D|--9-9-9-9-9-9--7-7-7--6-6-4-4--2-2-2-----| 2x
A|--7-7-7-7-X-X--7-7-7--4-4-2-2--0-0-0-----|
E|--0-0-0-0-7-7--5-5-5--X-X-X-X--X-X-X-----|

[Refrain] C#m-A-F#m-B 2x
e|---0-------0-----0---0----|---0-------0--0-----0-----|
B|-----0----0-----0------0--|-----0----0---0-----0-----|
G|----8----6-----2------8---|----8----6----2-----4-----|
D|--------------------------|--------------4-----4-----|
A|--------------------------|--------------4-----2-----|
E|--9-----5-----2-----7-----|--9-----5-----2-----X-----|

[Chorus] E-B-F#m-A 2x
e|--0--0--0--0--|
B|--0--0--0--0--| *actually, from F#m slide to A (577600)
G|--1--4--2--2--|
D|--2--4--4--2--| 2x
A|--2--2--4--0--|
E|--0--X--2--X--|

[Intro] E-B-A
e|--0-0-0-0-0-0--0------0--|
B|--0-0-0-0-0-0--0------0--|
G|--9-9-9-9p8h9--6--or--2--|
D|--9-9-9-9-9-9--7------2--|
A|--7-7-7-7-X-X--7------0--|
E|--0-0-0-0-7-7--5------X--|
[ Tab from: http://www.guitartabs.cc/tabs/h/hale/day_you_said_goodnight_tab.html ]
[Verse] E-B-A-C#m-B-A 2x
e|--0-0-0-0-0-0--0-0-0--0-0-0-0--0-0-0--0--|
B|--0-0-0-0-0-0--0-0-0--0-0-0-0--0-0-0--0--|
G|--9-9-9-9p8h9--6-6-6--6-6-4-4--2-2-2-----|
D|--9-9-9-9-9-9--7-7-7--6-6-4-4--2-2-2-----| 2x
A|--7-7-7-7-X-X--7-7-7--4-4-2-2--0-0-0-----|
E|--0-0-0-0-7-7--5-5-5--X-X-X-X--X-X-X-----|

[Refrain] C#m-A-F#m-B 2x
e|---0-------0-----0---0----|---0-------0--0-----0-----|
B|-----0----0-----0------0--|-----0----0---0-----0-----|
G|----8----6-----2------8---|----8----6----2-----4-----|
D|--------------------------|--------------4-----4-----|
A|--------------------------|--------------4-----2-----|
E|--9-----5-----2-----7-----|--9-----5-----2-----X-----|

[Chorus] E-B-F#m-A 2x
e|--0--0--0--0--|
B|--0--0--0--0--|
G|--1--4--2--2--|
D|--2--4--4--2--| 2x
A|--2--2--4--0--|
E|--0--X--2--X--|

[Bridge]
C#m-B-A-B
C#m-B-F#m-B

[Chorus] E-B-F#m-A 2x
e|--0--0--0--0--|
B|--0--0--0--0--|
G|--1--4--2--2--|
D|--2--4--4--2--| 2x
A|--2--2--4--0--|
E|--0--X--2--X--|

[Outro]
E-B-F#m-A
E-B-F#m-A
E-B-A
e|--0-0-0-0-0-0--0------0--|
B|--0-0-0-0-0-0--0------0--|
G|--9-9-9-9p8h9--6--or--2--|
D|--9-9-9-9-9-9--7------2--|
A|--7-7-7-7-X-X--7------0--|
E|--0-0-0-0-7-7--5------X--|

[End]
Comments