Hale - Day You Said Goodnight Chords & Tabs

 

Day You Said Goodnight Chords & Tabs

Hale Chords & Tabs

Version: 3 Type: Bass Tab 0 ratings
1 star 2 stars 3 stars 4 stars 5 stars
comments

Day You Said Goodnight Bass Tab

Hale - The Day You Said Goodnight
Tabbed by Renz Sui renz_sui@yahoo.com for corrections and
guitars/effects/amps/cymbals/toms/bass/bass effects/bass amps donations

BTW kung gusto niyo ng saktong kapa nung guitar nito email niyo lang ako,
I'll give you a copy, ayaw tanggapin dito sa UG eh.

x-Mute
/-slide up
h-hammer
p-pull off

G|--------------|
D|--------------|
A|--------0--0--|
E|--0--0--------|

G|------6---------------|
D|----6-----------------|
A|--4------x-2--0-0/12--|
E|----------------------|

G|--------------|
D|--------------|
A|--------0--0--|
E|--0--0--------|

G|------6------------------|
D|----6-------------7h9p7--|
A|--4------x-2--0-7--------|
E|-------------------------|

Prechorus

G|---------------------------------------------------|
D|---------------------------------------------------|
A|--4---6-6h7-6-----------------------------2-2---2--|
E|----4---------7--5-5-x-x-5--7-7-2-2-x-x-2-----2----|

G|------------------------------------------------------|
D|---------------------7h9p7----------------------------|
A|--4---6-6h7-6------7--------------------2-2--2-2-2-2--|
E|----4---------7--5---------x-7--2-x-x-2---------------|

Chorus

G|------------------------------------------------------------9--------------|
D|----------------------------------------------------7---7/9---6h7p6--------|
A|---------------------------2-2h4------------------7---7-------------7------|
E|-0--x-x-0-0-0-/7-7-x-x-7-7-------2-2-x-x-2--2-4-5---------------------5h7--|

G|----------------------------------------------------16--|
D|------------------------------------------------14------|
A|--------------------------------------------12----------|
E|-0--x-x-0-0-0-/7-7-x-x-7-7--2-2-x-x-2--2-4--------------|

2nd Verse

G|--------------|
D|--------------|
A|--------0--0--|
E|--0--0--------|

G|------6------------------|
D|----6-------------7h9p7--|
A|--4------x-2--0-7--------|
E|-------------------------|

G|--------------|
D|--------------|
A|--------0--0--|
E|--0--0--------|

G|-------------------|
D|-------------------|
A|--4-4-x-2--0-0/12--|
E|-------------------|

2nd Prechorus
[ Tab from: http://www.guitartabs.cc/tabs/h/hale/day_you_said_goodnight_btab_ver_3.html ]
G|----------------------------------------------4h6p4--|
D|--------------------------------------------4--------|
A|--4---6-6h7-6-----------------------------2----------|
E|----4---------7--5-5-x-x-5--7-7-2-2-x-x-2------------|

G|------------------------------------------------------|
D|---------------------7h9p7----------------------------|
A|--4---6-6h7-6------7-------7------------2-2--0-0-0-0--|
E|----4---------7--5-----------7--2-2-x-2---------------|

2nd Chorus

G|---------------------------------------------------------------------------|
D|----------------------------------------------------7---7/9-7-6h7p6--------|
A|---------------------------2-2h4------------------7---7-------------7------|
E|-0--x-x-0-0-0-/7-7-x-x-7-7-------2-2-x-x-2--2-4-5---------------------5h7--|

G|-----------------------------------------------------------------------------|
D|-----------------------------------------------------------------------------|
A|---------------------------------------------------/12-12-12-12-12-12-12-12--|
E|-0--x-x-0-0-0-/7-7-x-x-7-7--2-2-x-x-2--2-4-5-5-5-5---------------------------|

Bridge

G|--------------------------------------------------------------------------|
D|--------------------------------------------6h7-6--4-4-4------------------|
A|-4-4-x-x-4--4-4-4--2-2-x-x-2-2h4--------------------------7-7-7--6h7-6----|
E|----------------------------------5-5-5-5-5----------------------------7--|

G|---------------------------------------------4~--|
D|-------------------------------------------------|
A|-4-4-x-x-4--4-4h5--2-2-x-x-2-2h4-----------------|
E|----------------------------------2-2-2-2-2------|

Outro

G|-------------------------------------------------------------8h9p8------------|
D|-----------------------------------------------------7---7/9-------9-6h7p6----|
A|----------------------------2-2h4------------------7---7-------------------7--|
E|-0-0-x-x-0-0-0-/7-7-x-x-7-7-------2-2-x-x-2--2-4-5----------------------------|

G|-----------------------------------------------------------------------------------|
D|-----------------------------------------------------------------------------------|
A|----------------------------2-2h4------------------------/12-12-12-12-12-12-12-12--|
E|-0-0-x-x-0-0-0-/7-7-x-x-7-7-------2-2-x-x-2--2-4-5-5-5-5---------------------------|
Comments