Hale - Broken Sonnet Chords & Tabs

 

Broken Sonnet Chords & Tabs

Hale Chords & Tabs

Version: 9 Type: Tab 0 ratings
1 star 2 stars 3 stars 4 stars 5 stars
comments

Broken Sonnet Tab

   
ARTIST: HALE
TITLE: BROKEN SONNET
TABBED: seatwork_guitarist(sKyJuIcE)

intro
-------------------------------------------------------------|
-------------------------------------------------------------|
----0---0-----0----0----0----0-----0---0---------------------|
---0-0-0-----0-0--0----0-0--0-----0-0-0-0--------------------|
--7---7--9-10---10--9----------------------------------------|
---------------------10---10---7-8---8-----------------------|

Verse
Em-G-D-C9

REFRAIN
A- b#m- C9-(BROKEN CHORDS)(2X)
Em- D- C9-(2X)

REPEAT INTRO
REPEAT VERSE
REPEAT REFRAIN

CHORUS
G- D- Em- C-

[ Tab from: http://www.guitartabs.cc/tabs/h/hale/broken_sonnet_tab_ver_9.html ]
1st adlib
---------------------------------------------15-------------15-17-15-|
--------8--------------------10-12-13-15-17-----15-15-13-12----------|
-s12-7---------------9-11-12-----------------------------------------|
---------10-10-10-12-------------------------------------------------|
---------------------------------------------------------------------|
---------------------------------------------------------------------|

REPEAT CHORUS

2nd adlib
-------------------------------------------------------------|
-------------------------------------15----------------------|
---s12-12-12-11-------s12-12-12-11-12------------------------|
----------------12-12----------------------------------------|
-------------------------------------------------------------|
-------------------------------------------------------------|

Outro (plucked)
Em-G-D-C9
A-Bm-C9-D-Em-F#m-G 

gReet kO Uli cla...michael inarda,bhoy mejia,marvic reyes,ainier olino, at ako...jeff paza
Comments