Hale - Broken Sonnet Chords & Tabs

 

Broken Sonnet Chords & Tabs

Hale Chords & Tabs

Version: 8 Type: Tab 0 ratings
1 star 2 stars 3 stars 4 stars 5 stars
comments

Broken Sonnet Tab

   
Title: Broken Sonnet
Artist: Hale
Tabbed by: arwin18 nikefreestylemasteral08@yahoo.com

Standard Tuning: EADGBe

Legend:
/ => slide up
h => hammer-on
p => pull-off
~ => vibratto (the finger-shaking thing)


Intro (2x) / Verse (4x)
e ----------------------|------------------------|------------------------|----------------------|
B ----------------------|------------------------|------------------------|----------------------|
G -----0----------0-----|------0-----------0-----|------0-----------0-----|-----0----------0-----|
D ---0-----0----0-----0-|----0-----0-----0-----0-|----0-----0-----0-----0-|---0-----0----0-----0-|
A -7-----9----7-----9---|-10-----9----10-----9---|--------9---------------|-------9----------9---|
E ----------------------|------------------------|-10----------10-----7---|-8----------8---------|

with 2nd Guitar highlight on 4th repetition of Verse:
e ----------------------|------------------------|------------------------|------------10~-------|
B ----------------------|------------------------|------------------------|---7---8--------------|
G ----------------------|------------------------|------------------------|----------------------|
D ----------------------|------------------------|------------------------|----------------------|
A ----------------------|------------------------|------------------------|----------------------|
E ----------------------|------------------------|------------------------|----------------------|

Prechorus
e ----------------------|------------------------|------------------------|----------------------|
B ----------------------|------------------------|------------------------|----------------------|
G -----0----------0-----|------0----------0------|------0----------0------|-----0----------0-----|
D ---0-----0----0-----0-|----0-----0----0-----0--|----0-----0----0-----0--|---0-----0----0-----0-|
A -0-----9----0-----9---|--------9----------9----|--------9----------9----|-------9----------9---|
E ----------------------|--7----------7----------|--8----------8----------|-8----------8---------|

e ----------------------|------------------------|------------------------|----------------------|
B ----------------------|------------------------|------------------------|----------------------|
G -----0----------0-----|------0-----------0-----|------0----------0------|-----0----------0-----|
D ---0-----0----0-----0-|----0-----0-----0-----0-|----0-----0----0-----0--|---0-----0----0-----0-|
A -7-----9----7-----9---|--------9---------------|--------9----------9----|-------9----------9---|
E ----------------------|-10----------10-----7---|--8----------8----------|-8----------8---------|


Chorus (Strum, with breaks after every slide, 2x)
e ----------|-----------|-----------|------------|-----------|------------|----------|-----------|
B ----------|-----------|-----------|------------|-----------|------------|----------|-----------|
G ----------|-----------|-----------|------------|-----------|------------|----------|-----------|
D -9--------|-7/9-(hold)|-7---------|-7/9-(hold)-|-5---------|-3----------|-3--------|-7---------|
A -7--------|-5/7-(hold)|-5---------|-5/7-(hold)-|-3---------|-5----------|-5--------|-5---------|
E -0--------|-0---------|-0---------|-0----------|-0---------|-0----------|-0--------|-0---------|


Preverse (Same as Intro & Verse, 1x) with 2nd Guitar highlight
e ----------------------|------------------------|------------------------|----------------------|
B ----------------------|------------------------|------------------------|----------------------|
G -----0----------0-----|------0-----------0-----|------0-----------0-----|-----0----------0-----|
D ---0-----0----0-----0-|----0-----0-----0-----0-|----0-----0-----0-----0-|---0-----0----0-----0-|
A -7-----9----7-----9---|-10-----9----10-----9---|--------9---------------|-------9----------9---|
E ----------------------|------------------------|-10----------10-----7---|-8----------8---------|

Strum strings E, B and G (1 through 3): D | G | D | G
Then Verse (3x) with 2nd Guitar highlight on 3rd repetition of Verse

Prechourus2
e ----------------------|------------------------|------------------------|----------------------|
B ----------------------|------------------------|------------------------|---8-7-7-8----7-8-----|
G ----------------------|------------------------|------------------------|------------7-----7---|
D ----------------------|------------------------|------------------------|----------------------|
A ----------------------|------------------------|------------------------|----------------------|
E ----------------------|------------------------|------------------------|----------------------|

e ----------| Repeat 4x
B ----------|
G -----7-7--|
D ---5------|
A -7--------| Note: do not prolong sound
E ----------| Stacatto style
Then strum C9 [032033]
[ Tab from: http://www.guitartabs.cc/tabs/h/hale/broken_sonnet_tab_ver_8.html ]
Chorus with 2nd guitar:
e ----------------------|------------------------|------------------------|---8-7----------------|
B ----------------------|------------------------|------------------------|-------8--------------|
G ----------------------|------------------------|------------------------|----------9-7---------|
D ----------------------|------------------------|------------------------|--------------10-9~---|
A ----------------------|------------------------|------------------------|----------------------|
E ----------------------|------------------------|------------------------|----------------------|

Chorus2 (Strum)
e ----------|-----------|-----------|------------|-----------|------------|----------|-------|
B ----------|-----------|-----------|------------|-----------|------------|----------|-------|
G ----------|-----------|-----------|------------|-----------|------------|----------|-------|
D -12-------|-12--------|-7---------|-7----------|-9---------|-9----------|-12-------|-5/7---|
A -10-------|-10--------|-5---------|-5----------|-7---------|-7----------|-10--------|-3/5--|(hold)
E -0--------|-0---------|-0---------|-0----------|-0---------|-0----------|-0--------|-0-----|

e ----------|-----------|-----------|------------|-----------|------------|----------|-----------|------|
B ----------|-----------|-----------|------------|-----------|------------|----------|-----------|------|
G ----------|-----------|-----------|------------|-----------|------------|----------|-----------|------|
D -12-------|-12--------|-7---------|-7----------|-5---------|-5----------|-5--------|-5---------|-5/7--|
A -10-------|-10--------|-5---------|-5----------|-3---------|-3----------|-3--------|-3---------|-3/5--|(hold)
E -0--------|-0---------|-0---------|-0----------|-0---------|-0----------|-0--------|-0---------|-0----|

Solo1 (refer to song for timing)
e -----------------------------------------10-10h12-12~-15~--------------15~-15-15-15h17~-17-15~-|
B -7h8~----7/8~-------------------10-12-13------------------15~-15-13-12-------------------------|
G ------7~----------------9-11-12----------------------------------------------------------------|
D --------------10~-10-12------------------------------------------------------------------------|
A -----------------------------------------------------------------------------------------------|
E -----------------------------------------------------------------------------------------------|

Chorus

Chorus3 (Strum)
e ----------|-----------|-----------|------------|-----------|------------|----------|-----------|
B ----------|-----------|-----------|------------|-----------|------------|----------|-----------|
G ----------|-----------|-----------|------------|-----------|------------|----------|-----------|
D -12-------|-12--------|-7---------|-7----------|-9---------|-9----------|-12-11----|-7---------|
A -10-------|-10--------|-5---------|-5----------|-7---------|-7----------|-10-9--9-10-5---------|
E -0--------|-0---------|-0---------|-0----------|-0---------|-0----------|-------7-8------------|

e ----------|-----------|-----------|------------|-----------|------------|----------|-----------|
B ----------|-----------|-----------|------------|-----------|------------|----------|-----------|
G ----------|-----------|-----------|------------|-----------|------------|----------|-----------|
D -12-------|-12--------|-7---------|-7----------|-5---------|-5----------|-5--------|-7---------|
A -9--------|-9---------|-5---------|-5----------|-3---------|-3----------|-3--------|-5---------|
E -0--------|-0---------|-0---------|-0----------|-0---------|-0----------|-0--------|-0---------|

Solo2
e ---------------------------------------10~-|
B -7/8-8~-8-7--------7-7h8-8~-8-8-8p7-8~-----|
G ------------7-7~-7-------------------------|
D -------------------------------------------|
A -------------------------------------------|
E -------------------------------------------|

Outro
e ----------------------|------------------------|------------------------|----------------------|
B ----------------------|------------------------|------------------------|----------------------|
G -----0----------0-----|------0----------0------|------0----------0------|-----0----------0-----|
D ---0-----0----0-----0-|----0-----0----0-----0--|----0-----0----0-----0--|---0-----0----0-----0-|
A -3-----3--------------|--5-----5----5-----5----|-------------5-----5----|-3-----3----3-----3---|
E ------------3-----3---|------------------------|--0-----0---------------|----------------------|

e ----------------------|------------------------|------------------------|-------------------|
B ----------------------|------------------------|------------------------|-------------------|
G -----0----------0-----|------0----------0------|------0----------0------|-0-----------------|
D ---0-----0----0-----0-|----0-----0----0-----0--|----0-----0----0-----0--|-------------------|
A -0-----0----2-----2---|--3-----3----5-----5----|------------------------|---(hold til end)--|
E ----------------------|------------------------|--0-----0----2-----2----|-3-----------------|
Comments