Hale - Broken Sonnet Chords & Tabs

 

Broken Sonnet Chords & Tabs

Hale Chords & Tabs

Version: 5 Type: Tab 0 ratings
1 star 2 stars 3 stars 4 stars 5 stars
comments

Broken Sonnet Tab

tabbed by earl paed
mail me for corrections
hotmail_the_best@yahoo.com

standard tuning

1st adlib
-----------------------------------------15-10-10-8-7-15-17-15-|
--------------------------10-12-13-15-17-----------------------|
-s12-7-12-5-5-5-7-9-11-12--------------------------------------|
---------------------------------------------------------------|
---------------------------------------------------------------|
---------------------------------------------------------------|

2nd adlib
-----------------------------------------------------------|
-----------------------------------15----------------------|
---s12-12-12-11-7-7-s12-12-12-11-12------------------------|
-----------------------------------------------------------|
-----------------------------------------------------------|
-----------------------------------------------------------|
[ Tab from: http://www.guitartabs.cc/tabs/h/hale/broken_sonnet_tab_ver_5.html ]
intro
-------------------------------------------------------------|
-------------------------------------------------------------|
----0---0-----0----0----0----0-----0---0---------------------|
---0-0-0-----0-0--0----0-0--0-----0-0-0-0--------------------|
--7---7--9-10---10--9----------------------------------------|
---------------------10---10---7-8---8-----------------------|

outro
-----------------------------------------------------------|
-----------------------------------------------------------|
----0---0----0----0---0---0----0---0---0---0---0----0------|
---0-0-0-0--0-0--0-0-0-0-0----0-0-0-0-0-0-0-0-0-0--0-0-----|
--------------------7---7----------------------------------|
--8---8---10---10----------7-8---8---5---7---8---10--------|

-----------------------------------------------------------|
-----------------------------------------------------------|
----0---0--------------------------------------------------|
---0-0-0-0-------------------------------------------------|
--7---9---10-----------------------------------------------|
-----------------------------------------------------------|

opm rules!
Comments