Hale - Broken Sonnet Chords & Tabs

 

Broken Sonnet Chords & Tabs

Hale Chords & Tabs

Version: 1 Type: Bass Tab 0 ratings
1 star 2 stars 3 stars 4 stars 5 stars
comments

Broken Sonnet Bass Tab

   
Song Name   : Broken Sonnet
Band Name   : Hale
Tabbed By   : jdimpas@lexmark.com (Jan Michael Dimpas)
              Center for Industrial Technology & Enterprise(CITE)
 
			Please Rate!
            ----------------------------------
                     BROKEN SONNET
            ----------------------------------


STANDARD TUNNING:

[Intro]
Em-G-D-C

---Guitar 1 (Pluck)-----

Bass:
Verse I.
Em-G-D-C


G|--------------------------------------|
D|--------------------------------------|
A|--7-7----9/10-10--9-------------------|
E|--------------------10--10---7-8-8----|


Pre-Chorus:
Am-B-C
Em-D-C

G|-----------------------------------------|
D|-----------------------------------------|
A|-----------------------------------------|
E|---5--5-5-----7--7-7---8--8-8----8--8-8--|

G|-----------------------------------------|
D|-----------------------------------------|
A|---7--7-7-----5--5-5------3--3-3---------|
E|-----------------------------------------|


Chorus:

D/Em/G-D/G-C


G|-----------------------------------------|
D|-----------------------------------------|
A|---5--5-7----7/10---5--5/10----3--3-3----|
E|-----------------------------------------|

G|-----------------------------------------|
D|-----------------------------------------|
A|---5--5-7----7/10---5----5-3-2-3---------|
E|-----------------------------------------|

[Intro]
Em-G-D-C

G|--------------------------------------|
D|--------------------------------------|
A|--7-7----9/10-10--9-------------------|
E|--------------------10--10---7-8-8----|


Verse II.

--Guitar 2 (Strumming)---

Bass:
Em-G-D-C

G|--------------------------------------|
D|--------------------------------------|
A|--7-7----9/10-10--9-------------------|
E|--------------------10--10---7-8-8----|
[ Tab from: http://www.guitartabs.cc/tabs/h/hale/broken_sonnet_btab.html ]
Pre-Chorus:
Am-B-C
Em-D-C

G|-----------------------------------------|
D|-----------------------------------------|
A|-----------------------------------------|
E|---5--5-5-----7--7-7---8--8-8----8--8-8--|

G|-----------------------------------------|
D|-----------------------------------------|
A|---7--7-7-----5--5-5------3--3-3---------|
E|-----------------------------------------|



Chorus:
D/Em/G-D/G-C

G|-----------------------------------------|
D|-----------------------------------------|
A|---5--5-7----7/10---5--5/10----3--3-3----|
E|-----------------------------------------|

G|-----------------------------------------|
D|-------------------------------5--5-5----|
A|---5--5-7----7/10---5----5-3-2-----------|
E|-----------------------------------------|

Bridge:
G-D-E-C
E-D-C

G|-----------------------------------------|
D|-----------------------------------------|
A|--9-10--10-9----5--5-7-7---3-3---5/7-----|
E|-------------10--------------------------|

G|-----------------------------------------|
D|-----------------------------------------|
A|---7-7--5-5-----5-3-2-3-3----------------|
E|-----------------------------------------|


Solo Part:
D/Em/G-D/G-C

G|-----------------------------------------|
D|-----------------------------------------|
A|---5--5-7----7/10---5--5/10----3--3-3----|
E|-----------------------------------------|

G|-----------------------------------------|
D|-------------------------------5--5-5----|
A|---5--5-7----7/10---5----5-3-2-----------|
E|-----------------------------------------|

G|-------------------------|
D|---5p4p3-----------------|
A|--------5p4p3------------|
E|-------------------------|



Repeat Chorus:

[Outro]

-----guitar pluck------


Bass ( last part )

G|------------------------------|
D|------------------------------|
A|---0---3-5---7--7---9---10----|
E|------------------------------|



Please Rate! thanks.. see me at friendster:janmichael_dimpas2004@yahoo.co
Comments