Hale - Blue Sky Chords & Tabs

 

Blue Sky Chords & Tabs

Hale Chords & Tabs

Version: 1 Type: Tab 0 ratings
1 star 2 stars 3 stars 4 stars 5 stars
comments

Blue Sky Tab

Blue Sky - Hale
Tabber: DJ Faustino

Bigay ko d2 mga 2-4 stars. Kayo na bahala.

Intro(Guitar 1[Clean muffled]): (mga 6.5 seconds)
e|---------------------------|
B|---------------------------|
G|---------------------------|
D|---9-----8-----7-----6-----|
A|---9-----9-----7-----6-----| 
E|---7-----7-----5-----4-----|

Intro: (Guitar o Bass?) 
e|------------------------------------------|
B|------------------------------------------|
G|------------------------------------------| 2x
D|------------------------------------------| 
A|--/9-----7h6-7h6-----7h6-7h6----7h6-7h6-9~| 
E|-----------------7-----------7------------|

Verse (pareho lng ng intro)
e|---------------------------|
B|---------------------------|
G|---------------------------| 2x
D|---9-----8-----7-----6-----|  
A|---9-----9-----7-----6-----| 
E|---7-----7-----5-----4-----|
 
Chorus(Guitar 1)(Dist.)
e|---------------------------|
B|---------------------------|
G|---------------------------|
D|---9-----8-----7-----6-----|
A|---9-----9-----7-----6-----| 
E|---7-----7-----5-----4-----|
[ Tab from: http://www.guitartabs.cc/tabs/h/hale/blue_sky_tab.html ]
Guitar 2
    4x      4x      4x       4x
e|-------|-------|-------|-------|
B|-12h13-|-11h12-|-10h12-|-14p12-| play on:
G|-------|-------|-------|-------| (first chorus ung wlang lyrics)
D|-------|-------|-------|-------| (end of bridge when drums come in)
A|-------|-------|-------|-------| 
E|-------|-------|-------|-------|

Repeat all until 2:53

Bridge

e|----------------------------------|
B|----------------------------------|
G|----------------------------------|
D|--33333--55555---8-8-8-8-8xxxx-8-|
A|--33333--55555---8-8-8-8-8xxxx-8--| 
E|--11111--33333--1010101010xxxx10--|

Repeat bridge 2x then:

e|-----------------------------------------------------|
B|-----------------------------------------------------|
G|-----------------------------------------------------|
D|--33333--55555----8-8-7-5-3-------------5------------|
A|--33333--55555----8-8-7-5-3(let ring)---5(let ring)--| 
E|--11111--33333---10-6-5-3-1-------------3------------|

Repeat chorus

Outro:

e|----------------------------|
B|----------------------------|
G|---/10-9-7-5~(repeat 9x)----|
D|----------------------------|
A|----------------------------| 
E|----------------------------|

email corrections to djfaustino01@yahoo.com
Comments