Hale - Bent Down Chords & Tabs

 

Bent Down Chords & Tabs

Hale Chords & Tabs

Version: 2 Type: Tab 0 ratings
1 star 2 stars 3 stars 4 stars 5 stars
comments

Bent Down Tab

Bent Down Hale
tabbed by: Cheska Fernando
TAMA TO!!! SWEAR!!!! PLEASE GIVE ME SOME RATINGS hehehe
enjoy...
sinulat ko narin mga lyrics para di kayo mahirapan..

Intro:
E|---2-----2------------2-----2----------|
B|-----3-----3-------------3-----3-------|
G|---------------------------------------| 
D|---0-----0------------0-----0----------|
A|---------------------------------------|
E|---------------------------------------|

E|---2-----2------------2-----0----------|
B|-----3-----3-------------0--2--0-------|
G|----------------------------2----------| 
D|---0-----0------------0--0--2--0-------|
A|---------------------------------------|
E|---------------------------------------|

Verse: this goes for every start of a verse 
E|--2-----2-------2-----2-------2-----2-------2-----2---|
B|----3-----3-------3-----3-------3-----3-------3-----3-|
G|------------------------------------------------------| 
D|--0-----0-------0-----0-------0-----0-------0-----0---|
A|------------------------------------------------------|
E|------------------------------------------------------|
 [These are the first lines of every verse:] 
  my conscience is hurting  my  ear
  
  you never said what does it mean
  
  I don't know why this wont stop
  
  You could be here

This part goes for the next three lines of every verse
E|--2----2---------0------0-----------------------------|
B|----3----3----------3------3--------------3----------3|
G|---------------------------------2-----2-----2-----2--|
D|--0----0---------0--0---0--0--------0-----------0-----|
A|---------------------------------0-----0-----0-----0--|
E|------------------------------------------------------|
 [Here are the three lines of every verse:]
  but I'm happy as long as you are  
  I hide if I can
  I don't care where I stand 
  
  Im speaking the same words again
  But I will if you have to fall
  Im here if you want me at all

  Cause maybe it just wont stop
  But I will if I here you call
  Though maybe you don't care at all

  Oh you could be here
  As close as I can hold
  Together as were told
[ Tab from: http://www.guitartabs.cc/tabs/h/hale/bent_down_tab_ver_2.html ]
This one goes for all last lines of every verse
E|------------------------------------------------------|
B|----------3--------------3------------------5-----5---|
G|-4-----4-------6-----6--------7-----7---------7-----7-|
D|----0-------------0--------------0-----0--------------|
A|-0-----0-------0-----0--------0-----0-------0-----0---|
E|------------------------------------------------------|
  [Here are the last lines of every verse:]
  As long as you are bent down

  Just as long as you are bent down
  
  But at least youre the one bent down

  For were the ones bent down

CHORUS:
E|--2-----2-------2-----2-------2-----2-------2-----2---|
B|----3-----3-------3-----3-------3-----3-------3-----3-|
G|------------------------------------------------------| 
D|--0-----0-------0-----0-------0-----0-------0-----0---|
A|------------------------------------------------------|
E|------------------------------------------------------|
   She                            feels

 She                            keeps
E|------------------------------------------------------|
B|------------3----------3--------------3-----------3---|
G|---2-----2-----2-----2-------4-----4-----6-----6------|
D|------0-----------0-------------0-----------0---------|
A|---0-----0-----0-----0-------0-----0-----0-----0------|
E|------------------------------------------------------|
  Im laid out for every        thing here

  Me away     from this song of mine

End:
E|---2-----2------------2-----2----------|
B|-----3-----3-------------3-----3-------|
G|---------------------------------------| 
D|---0-----0------------0-----0----------|
A|---------------------------------------|
E|---------------------------------------|

E|---2-----2------------2-----0----------|
B|-----3-----3-------------0--2--0-------|
G|----------------------------2----------| 
D|---0-----0------------0--0--2--0-------|
A|---------------------------------------|
E|---------------------------------------|


E|---2-----2------------3-----3----------|
B|-----3-----3-------------3-----3-------|
G|---------------------------------------| 
D|---0-----0------------0-----0----------|
A|---------------------------------------|
E|---------------------------------------|


E|---5--------5-----7-------9-----10-----|
B|---------3----------------------10-----|
G|------4-------------------------11-----| 
D|---0--------------0--------------------|
A|---------------------------------------|
E|---------------------------------------|

bahala na kayo magcomment...
www.fortesque_007@yahoo.com
o kaya text nyo nalang 09224457435
Comments