Haim - The Wire Chords & Tabs

 

The Wire Chords & Tabs

Haim Chords & Tabs

Version: 1 Type: Bass Tab 0 ratings
1 star 2 stars 3 stars 4 stars 5 stars
comments

The Wire Bass Tab

-------------------------------------------------------------------------------
                             THE WIRE - Haim
-------------------------------------------------------------------------------
Tabbed by: Lauren Marquez
E-mail: lauren.marquez4@gmail.com

Tuning: Standard
Album Version

Verse 1:
G|-------|-------------------|--------------|--------------|---|
D|-------|-------------------|--------------|--------------|---|
A|-5-----|-555555555555-(x4)-|--------------|--------------|-5-|
E|---5-7-|-------------------|-555555555555-|-333333333333-|---|

G|-------|-------------------|----------9-7----|--------------|----------------|---|
D|-------|-------------------|-------7h9---9-7-|--------------|----------------|---|
A|-----5-|-555555555555-(x3)-|-555555----------|--------------|----------------|-5-|
E|-5h7---|-------------------|-----------------|-555555555555-|-3333333333-5h7-|---|


Chorus:
G|-------------------------------------------------------|
D|-------------------------------------------------------|
A|---------------555555555555-222222222222-000000000000--| x4
E|--333333333333-----------------------------------------|

[ Tab from: http://www.guitartabs.cc/tabs/h/haim/the_wire_btab.html ]
Verse 2**:
G|-------------|--------|---------------|---------------|----------------------------|
D|-------------|--------|---------------|---------------|----------------------------|
A|-5-5555-(x7)-|-555555-|---------------|---------------|-5-5555-5-5555-5-5555555555-|
E|-------------|--------|-5-5555-5-5555-|-3-3333-3-3333-|----------------------------|

G|-------------------|--------------|--------------|---|
D|-------------------|--------------|--------------|---|
A|-555555555555-(x4)-|--------------|--------------|-5-|
E|-------------------|-555555555555-|-333333333333-|---|

Chorus x1
No bass in bridge (if you want to play it, it's the same notes as the chorus)
Chorus until the end


**At live shows Este plays Verse 2 differently during Alana's verse:
G|---------------------|----------------|----------------|-------------|
D|-------7-5-4---------|----------------|----------------|-------------|
A|-555555-5-5-5-0-(x4)-|-------7-5-4----|-------5-5-3h55-|-555555-(x4)-|
E|---------------------|-555555-5-5-5-0-|-333333-3-3-----|-------------|

G|-------------------|--------------|--------------|---|
D|-------------------|--------------|--------------|---|
A|-555555555555-(x4)-|--------------|--------------|-5-|
E|-------------------|-555555555555-|-333333333333-|---|
Comments