Haggard - Wayward Woman Chords & Tabs

 

Wayward Woman Chords & Tabs

Haggard Chords & Tabs

Version: 1 Type: Bass Tab 0 ratings
1 star 2 stars 3 stars 4 stars 5 stars
comments

Wayward Woman Bass Tab

Wayward Woman by the greatest band in the world, Haggard. Enjoy or die.



Intro
G--------------------------------I----------------------------------I
D--------------------------------I----------------------------------I  
A------0--------7--3--5--0-------I------0--------7--3--5--0---------I   
E--------------------------------I---------------------------3--5---I  


G--------------------------------I----------------------------------I
D--------------------------------I----------------------------------I  
A------0--------7--3--5--0-------I------0--------7--3--5--0---------I   
E--------------------------------I---------------------------3--5---I


G-----------I
D-----------I
A--0--0--0--I
E-----------I


Chorus

G--------------------------------I--------------I
D--------------------------------I--------------I
A--0-----------7--3--5--0--------I--0---0---0---I
E-----3--5-----------------3--5--I--------------I


G--------------------------------I--------------I
D--------------------------------I--------------I
A--0-----------7--3--5--0--------I--------------I
E-----3--5-----------------3--5--I-5b-----------I


Verse

G------------------------------I
D------------------------------I
A--0--0--------5--5--5--5/7\3--I
E--------3--3------------------I


Slow Bit
[ Tab from: http://www.guitartabs.cc/tabs/h/haggard/wayward_woman_btab.html ]
G--------------------------------------------I
D--------------------------------------------I
A--------------------------------------------I
E--5----5----5----5--4--3----3----3----3--4--I

G--------------------------------------------I
D--------------------------------------------I
A--------------------------------------------I
E--5----5----5----5--4--3----3----3----3--4--I

G--------------------------------------------I
D--------------------------------------------I
A--------------------------------------------I
E--5----5----5----5--4--1----1----1----1--4--I

G--------------------------------------------I
D--------------------------------------------I
A--------------------------------------------I
E--5----5----5----5--4--1----1----1----1--3--I

G--------------------------------------------I
D--------------------------------------------I
A--------------------------------------------I
E--5--------------1--3--5-----------5--3--1--I

G--------------------------------------------I
D--------------------------------------------I
A--------------------------------------------I
E--0--1--3--5----553311--0----0--0--0--3--1--I


Outro

G-------------------------------------I
D-------------------------------------I
A--0-----------7--3--5~------0--3--5--I
E-----3--5-------------------0--3--5--I


Intro                  x1
Chorus                 x2
Verse                  x4
Chorus                 x2
Slow Bit               x1
Chorus                 x2
Verse                  x4
Chorus                 x3
Outro                  x1
Comments