Haggard - Prophecy Fulfilled And The Dark Night Entered Chords & Tabs

 

Prophecy Fulfilled And The Dark Night Entered Chords & Tabs

Haggard Chords & Tabs

Version: 1 Type: Tab 0 ratings
1 star 2 stars 3 stars 4 stars 5 stars
comments

Prophecy Fulfilled And The Dark Night Entered Tab

-- Prophecy fülfilled / And the dark night entered --

Standard tuning.

(Flute beggins...)

Guitar starts after drums

 Intro
                                           X 2
[-----------------------------------------------|----- -]
[-----------------------------------------------|-------]
[-.-------------------------------------------.-|-------]
[-.7----5----10----3----7----3----3----3----2-.-|-3-----]
[--7----5----10----3----7----3----3----3----2---|-3-----]
[--5----3----8-----1----5----5----1----5----0---|-1-----]

 Let ring chords . . . . . . . . . . . . . . . . . .

 Riff 1
                                   X 3
[-------------------------------------------------------]
[------------------------------------------- -----------]
[-------------------------------------------------------]
[----------------55555-4-2-44444------------------------]
[-3333-2-3333-2--33333-2-0-22222------------------------]
[-1111-0-1111-0-----------------------------------------]

Riff 2                                      End 1 End 2
                                              X 1  x 1
[------------------------------------------|------|------]
[------------------------------------------|------|------]
[.----------------------------------------.|--4-5-|5-4-2-]
[.------------------------55555-4-2-44444-.|2-----|------]
[-33333-22222-33333-22222-33333-2-0-22222--|------|------]
[-11111-00000-11111-00000------------------|------|------]

Then Riff 2 without ends         X 2

Fill 1                       Fill 2
                    X 4                     X1
[-------------------------] [-------------------------]
[-------------------------] [-------------------------]
[-------------------------] [-4-5-2-------------------]
[-5-4-2-4-4444-4444-------] [-------4-5-2-------------]
[-3-2-0-2-2222-2222-------] [-------------------------]
[-------------------------] [-------------------------]




Riff 3
      X 1 w. End 1- X 1 w. End 2- x 1 w. End 1- x 1 alone.
[-------------------------------------------]
[-------------------------------------------]
[-------------------------------------------]
[-------------------------55555-4-2-44444---]
[-22222-22222-33333-33333-33333-2-0-22222---]
[-00000-00000-11111-11111-------------------]

 Fill 1    X 4

 Riff 4
                                             X 2
[----------------------------------------------]
[----------------------------------------------]
[---------------------------------------55-44--]
[-7--5--10--3---------------------55-44--------]
[-7--5--10--3--77777777-66666666---------------]
[-5--3--8---1--55555555-44444444---------------]
[ Tab from: http://www.guitartabs.cc/tabs/h/haggard/prophecy_fulfilled_and_the_dark_night_entered_tab.html ]
Let ring . . .

Riff 2   X 4
Fill 1   X 4
Riff 4   X 2

Fill 3
   X 1   Strings ...
[----|-------------------]
[----|-------------------]
[----|-------------------]
[-5--|----------------5--]
[-5--|----------------5--]
[-3--|----------------3--]
Let ring . . . . . . . .

Riff 5
                                                                        X 1
[---------------------------------------------------------|---------------]
[---------------------------------------------------------|---------------]
[.2------------------------------------------------------.|---------------]
[.2--2-4-2-4-2-4-2-4---------4-2--2-4-2-4-2-4-2-4--------.|---------------]
[--------------------7-5-4-5----------------------7-5-4-5-|555555555555555]
[--------------------5-3-2-3----------------------5-3-2-3-|333333333333333]
  silence notes. . . pm . .   silence notes. . . .pm . .

Riff 5 (from : to :) X 1
End with this
[------]
[------]
[------]
[------]
[-4-2--]
[------]

(Piano...)

Riff 6

[-----------------------------------------------------------------------]
[-----------------------------------------------------------------------]
[-------------------2---------------------------------------------------]
[-----4-----------4---5-4-2-----------4-------------------4444-2222-0000]
[-2-5----5--4--2-5---------5-4-2--2-5-----5--4--2222-5555---------------]
[------3---2-2--------------------------3--2--2-------------------------]
               X 1
[----------------]
[----------------]
[----------------]
[-5-4------------]
[-3-2-5-4--------]
[-----3-2--------]

(Violins...)

Riff 7
                                                X 4
[---------------------------------------------------]
[---------------------------------------------------]
[---------------------------2-----------------------]
[--0-1-0--------4444444444---5-4-2------4444444444--]
[-5-----4-2-----2222222222---------5-4--2222222222--]
[-----------5-3-------------------------------------]

(Drums...)
Riff 6   X 1

Riff 8
                                 X 1
[------------------------------------]
[------------------------------------]
[------------------------------------]
[------------------------------------]
[-55555555-55555555-4-22222222-555-2-]
[-33333333-33333333-2-00000000-333-0-]

Riff 8 X 1
End with this
[------------]
[------------]
[------------]
[------------]
[-2222222-3--]
[-0000000-1--]

Riff 8   X 3

Riff 3 with endings X 4

Fill 1   X 4




Outro
                 X 1
[------------------]
[------------------]
[------------------]
[-5-4-2---2--4-2---]
[-------3----------]
[------------------]
Comments