Haggard - Herr Mannelig Chords & Tabs

 

Herr Mannelig Chords & Tabs

Haggard Chords & Tabs

Version: 1 Type: Tab 0 ratings
1 star 2 stars 3 stars 4 stars 5 stars
comments

Herr Mannelig Tab

Standar Tuning

1:04
|-10-11-10\8-------------8---------------------|
|------------11--8-10-11---11-10-8--8-10-11-11-|
|----------------------------------------------|
|----------------------------------------------|
|----------------------------------------------|
|----------------------------------------------|

|-------8-8----8-10----|
|-11-11-----11------11-|
|----------------------|
|----------------------|
|----------------------|
|----------------------|

|-10-11-10\8-------------8---------------------|
|------------11--8-10-11---11-10-8--8-10-11-11-|
|----------------------------------------------|
|----------------------------------------------|
|----------------------------------------------|
|----------------------------------------------|

|-------8-8----8-10-|
|-11-11-----11------|
|-------------------|
|-------------------|
|-------------------|
|-------------------|
1:28
Gtr I
|----------------------------------------|
|----------------------------------------|
|----------------------------------------|
|-5---8--5--8--3--5---8---5---8--5--8--5-|
|-5---8--5--8--3--5---8---5---8--5--8--5-|
|-3---6--3--6--1--3---6---3---6--3--6--3-|
Gtr II
|-10-10-11-10\8-------------8---------------------|
|---------------11--8-10-11---11-10-8--8-10-11-11-|
|-------------------------------------------------|
|-------------------------------------------------|
|-------------------------------------------------|
|-------------------------------------------------|

|-------8-8----8-10-13--10-10-11-10\8-------------|
|-11-11-----11------------------------11--8-10-11-|
|-------------------------------------------------|
|-------------------------------------------------|
|-------------------------------------------------|
|-------------------------------------------------|
[ Tab from: http://www.guitartabs.cc/tabs/h/haggard/herr_mannelig_tab.html ]
|-8-(8)----------|
|--------11-10-8-|
|----------------|
|----------------|
|----------------|
|----------------|
Gtr I&II
|------------------------------------------|
|------------------------------------------|
|------------------------------------------|
|-5--5-5--5--5-5--8-3-5--5-8--3-3-3-3-5--8-|X2
|-5--5-5--5--5-5--8-3-5--5-8--3-3-3-3-5--8-|
|-3--3-3--3--3-3--6-1-3--3-6--1-1-1-1-3--6-|

|-------|   |-------|  |-------|  |-------|  |-------|
|-------|   |-------|  |-------|  |-------|  |-------|
|-------|   |-------|  |-------|  |-------|  |-------|
|-5-5-5-|X10|-3-3-3-|X2|-7-7-7-|X2|-6-6-6-|X2|-5-5-5-|X9
|-5-5-5-|   |-3-3-3-|  |-7-7-7-|  |-6-6-6-|  |-5-5-5-|
|-3-3-3-|   |-1-1-1-|  |-5-5-5-|  |-4-4-4-|  |-3-3-3-|
 ........................PM..........................
|------------------------------------------|
|------------------------------------------|
|------------------------------------------|
|-5--5-5--5--5-5--8-3-5--5-8--3-3-3-3-5--8-|X2
|-5--5-5--5--5-5--8-3-5--5-8--3-3-3-3-5--8-|
|-3--3-3--3--3-3--6-1-3--3-6--1-1-1-1-3--6-|

|---------------|  |---------------| |-----|  |-----|  |-----|
|---------------|  |---------------| |-----|  |-----|  |-----|
|---------------|  |---------------| |-----|  |-----|  |-----|
|-5-5--5--5-5-5-|X5|-3-3--3--3-3-3-| |-5-5-|X4|-7-7-|X2|-3-3-|X2
|-5-5--5--5-5-5-|  |-3-3--3--3-3-3-| |-5-5-|  |-7-7-|  |-3-3-|
|-3-3--3--3-3-3-|  |-1-1--1--1-1-1-| |-3-3-|  |-5-5-|  |-1-1-|
 ...........................PM...............................
|---------------|  |-----|
|---------------|  |-----|
|---------------|  |-----|
|-5-5--5--5-5-5-|X7|-5-5-|
|-5-5--5--5-5-5-|  |-5-5-|
|-3-3--3--3-3-3-|  |-3-3-|

3:40
|------------------------------------------|
|------------------------------------------|
|------------------------------------------|
|-5--5-5--5--5-5--8-3-5--5-8--3-3-3-3-5--8-|X2
|-5--5-5--5--5-5--8-3-5--5-8--3-3-3-3-5--8-|
|-3--3-3--3--3-3--6-1-3--3-6--1-1-1-1-3--6-|

|-------|   |-------|  |-------|  |-------|  |-------|
|-------|   |-------|  |-------|  |-------|  |-------|
|-------|   |-------|  |-------|  |-------|  |-------|
|-5-5-5-|X10|-3-3-3-|X2|-7-7-7-|X2|-6-6-6-|X2|-5-5-5-|X9
|-5-5-5-|   |-3-3-3-|  |-7-7-7-|  |-6-6-6-|  |-5-5-5-|
|-3-3-3-|   |-1-1-1-|  |-5-5-5-|  |-4-4-4-|  |-3-3-3-|
 ........................PM..........................
Comments