Haddaway - What Is Love Chords & Tabs

 

What Is Love Chords & Tabs

Haddaway Chords & Tabs

Version: 2 Type: Bass Tab 0 ratings
1 star 2 stars 3 stars 4 stars 5 stars
comments

What Is Love Bass Tab

artist: Haddaway
song: What Is Love
tabber: Master tabber zinn

I'll take this time to introduce myself. The name's Zinn. I play in the band 
called The Apes Of Wrath.look us up on basstabarchive.com. We tour around 
the north shore of Mass. and play night clubs in Boston. You'll probably 
hear more about us after high school in a few years. If u wanna learn more 
about us go to www.geocities.com/Half_Baked_Bass/halfbaked.html
well, enough said, here's the tab....
[ Tab from: http://www.guitartabs.cc/tabs/h/haddaway/what_is_love_btab_ver_2.html ]
  this is simplicity at it's finest.
G|-------------------------------------
D|--------------------0-0-00-0-3-3-33-3
A|-----------1-1-11-1------------------
E|--3-3-33-3---------------------------
    or play it with the same sound like this.
G|--------------------------------------
D|-----------------------------3-3-33-3-
A|--------------------5-5-55-5----------
E|--3-3-33-3-6-6-66-6-------------------


I'd like to have a summer tour this summer of 2000.
       If you are a band member of a band around or near Boston or on the 
East shore. E-mail me and we could possibly add you to our bill. We're on 
the BoRn AnD RaZeD tour going around different night clubs and earning cash. 
I'd LIke to have a big outdoor concert this summer. Well, c ya, e-mail me.
Comments