H2o - Phone Song Chords & Tabs

 

Phone Song Chords & Tabs

H2o Chords & Tabs

Version: 1 Type: Tab 0 ratings
1 star 2 stars 3 stars 4 stars 5 stars
comments

Phone Song Tab

   
                             PHONE SONG - H20

By: Olson Patterson 

x/= pick slide
^ = bend 1 full step
PM= palm mute
/ = silde down
\ = silde up
()= played by 2nd guitar

intro:
   Bo               Eiio     Do    Co
e|---------------------------------------|
B|--------------play-2-times-------------|
G|---------------------------------------|
D|-2-2-2-2-2-2-2-2--7-7-7-7--5-5-5-5-5-5-|
A|-2-2-2-2-2-2-2-2--7-7-7-7--5-5-5-5-5-5-|
E|-0-0-0-0-0-0-0-0--5-5-5-5--3-3-3-3-3-3-|
   PM-------------  PM-----  PM---------   

   Bo               A        G     F                        ( ): Played by 2nd guitar
e|---------------------------------------|----------------------------------------------|
B|---------------------------------------|----------------------------------------------|
G|---------------------------------------|------------------(9^-------7^)---------------|
D|-2-2-2-2-2-2-2-2--7-7-7-7--5-5-5-5-5-5-|-2-2-2-2-2-2-2-2--7----------------------2----|
A|-2-2-2-2-2-2-2-2--7-7-7-7--5-5-5-5-5-5-|-2-2-2-2-2-2-2-2--7----------------------2----|
E|-0-0-0-0-0-0-0-0--5-5-5-5--3-3-3-3-3-3-|-0-0-0-0-0-0-0-0--5----------------------0--x/|
   PM-------------  PM-----  PM---------   PM-------------

e|---------------------------------------|
B|-----------play-4-times----------------|
G|---------------------------------------|
D|-2-2-2-2-2-2-2-2--7-7-7-7--5-5-5-5-5-5-|
A|-2-2-2-2-2-2-2-2--7-7-7-7--5-5-5-5-5-5-|
E|-0-0-0-0-0-0-0-0--5-5-5-5--3-3-3-3-3-3-|

e|---------------------------------------|
B|------------play-2-times---------------|
G|---------------------------------------|
D|-4-4-4-4-4-4-4-4--9-9-9-9--7-7-7-7-7-7-|
A|-4-4-4-4-4-4-4-4--9-9-9-9--7-7-7-7-7-7-|
E|-2-2-2-2-2-2-2-2--7-7-7-7--5-5-5-5-5-5-|

e|---------------------------|
B|--------play-3-times-------|
G|------5-5------------------|
D|-5-5--5-5--2---------2-2-2-|
A|-5-5--3-3--2---------2-2-2-|
E|-3-3-------0-----x\--0-0-0-|

   F                Co               Bo
e|-----------------------------------------------------------------|
B|-----------------------------------------------------------------|
G|------------------5-5-5-5-5-5-5-5--------------------------------|
D|-3-3-3-3-3-3-3-3--5-5-5-5-5-5-5-5--2-2-2-2-2-2-2-2-2-2-2-2-2-2-2-|
A|-3-3-3-3-3-3-3-3--3-3-3-3-3-3-3-3--2-2-2-2-2-2-2-2-2-2-2-2-2-2-2-|
E|-1-1-1-1-1-1-1-1-------------------0-0-0-0-0-0-0-0-0-0-0-0-0-0-0-|

   Bo               Eiio     Do    Co                             
e|---------------------------------------|
B|---------------------------------------|
G|---------------------------------------|
D|-2-2-2-2-2-2-2-2--7-7-7-7--5-5-5-5-5-5-|
A|-2-2-2-2-2-2-2-2--7-7-7-7--5-5-5-5-5-5-|
E|-0-0-0-0-0-0-0-0--5-5-5-5--3-3-3-3-3-3-|
   PM-------------  PM-----  PM---------  
[ Tab from: http://www.guitartabs.cc/tabs/h/h2o/phone_song_tab.html ]
   Bo               A        G     F     E
e|---------------------------------------|
B|---------------------------------------|
G|---------------------------------------|
D|-2-2-2-2-2-2-2-2--7-7-7-7--5-5-5-5-5-5-|
A|-2-2-2-2-2-2-2-2--7-7-7-7--5-5-5-5-5-5-|
E|-0-0-0-0-0-0-0-0--5-5-5-5--3-3-3-3-3-3-|
   PM-------------  

e|---play----|---------------|
B|-----2-----|---------------|
G|---times---|-----9---------|
D|------2--2-|---9---9-------|
A|------2--2-|-7-------------|
E|------0--0-|------------x\-|
        PM--

e|---------------------------------------|
B|-----------play-4-times----------------|
G|---------------------------------------|
D|-2-2-2-2-2-2-2-2--7-7-7-7--5-5-5-5-5-5-|
A|-2-2-2-2-2-2-2-2--7-7-7-7--5-5-5-5-5-5-|
E|-0-0-0-0-0-0-0-0--5-5-5-5--3-3-3-3-3-3-|

e|---------------------------------------|
B|------------play-2-times---------------|
G|---------------------------------------|
D|-4-4-4-4-4-4-4-4--9-9-9-9--7-7-7-7-7-7-|
A|-4-4-4-4-4-4-4-4--9-9-9-9--7-7-7-7-7-7-|
E|-2-2-2-2-2-2-2-2--7-7-7-7--5-5-5-5-5-5-|

e|---------------------------|
B|--------play-3-times-------|
G|------5-5------------------|
D|-5-5--5-5--2---------2-2-2-|
A|-5-5--3-3--2---------2-2-2-|
E|-3-3-------0-----x\--0-0-0-|

   F                Co               Bo
e|-----------------------------------------------------------------|
B|-----------------------------------------------------------------|
G|------------------5-5-5-5-5-5-5-5--------------------------------|
D|-3-3-3-3-3-3-3-3--5-5-5-5-5-5-5-5--2-2-2-2-2-2-2-2-2-2-2-2-2-2-2-|
A|-3-3-3-3-3-3-3-3--3-3-3-3-3-3-3-3--2-2-2-2-2-2-2-2-2-2-2-2-2-2-2-|
E|-1-1-1-1-1-1-1-1-------------------0-0-0-0-0-0-0-0-0-0-0-0-0-0-0-|

   Bo               Eiio     Do      Co  Bo               Eiio     Do      Co   Bo               A        G       F    E
e|----------------------|----------------------|-------------------------------|
B|----------------------|----------------------|-------------------------------|
G|-----9----9----7----5-|-----9----9----7----5-|-----9----9----7----5--------9-|
D|---9------9----7----5-|---9------9----7----5-|---9------9----7----5------9---|
A|-7--------7----5----3-|-7--------7----5----3-|-7--------7----5----3----7-----|
E|----------------------|----------------------|-------------------------------|
 |                      |                      |                               |
e|----------------------|----------------------|-------------------------------|
B|----------------------|----------------------|-------------------------------|
G|---9^-------7^------5^|-4^----9^----7^-----5^|-4^-----9^----7^----5^---4^----|
D|----------------------|----------------------|-------------------------------|
A|----------------------|----------------------|-------------------------------|
E|----------------------|----------------------|-------------------------------|

e|-------------------------|
B|-------------------------|
G|-------------------------|
D|-7-7-7-7--5-5-5-5-5-5--2-|
A|-7-7-7-7--5-5-5-5-5-5--2-|
E|-5-5-5-5--3-3-3-3-3-3--0-|
   pm-----  pm---------

Fill Chords:
  Bo  Eiio Do  Co  A   G   F   E
e|-------------------------------|
B|-------------------------------|
G|-4---9---7---5-----------------|
D|-x---x---x---x---7---5---3---2-|
A|-2---7---5---3---7---5---3---2-|
E|-----------------5---3---1---0-|
Comments