H2o - Guilty By Association Chords & Tabs

 

Guilty By Association Chords & Tabs

H2o Chords & Tabs

Version: 1 Type: Bass Tab 0 ratings
1 star 2 stars 3 stars 4 stars 5 stars
comments

Guilty By Association Bass Tab

Song: Guilty By Association
Artist: H2O
Album: Punk-o-Rama #5
Tabbed By: Brendan Engelmann (trash4u@eboarding.net)

Well first of all this is a great song and i dont know 
why anybody else hasnt tabbed it yet but anyway here it 
is.This is my first tab so I hope its right,well at 
least some parts of it!


Riff 1

G|-----------------------------------------------------
D|-----------------------------------------------------
A|-------------------------------88-777777777----------
E|--0000000-2-3333333-77-5555555-----------------------

                              or
G|-----------------------------------------------------
D|-------------------------------33-222222222----------
A|--------------------22-0000000-----------------------
E|--0000000-2-3333333----------------------------------

Riff 2
[ Tab from: http://www.guitartabs.cc/tabs/h/h2o/guilty_by_association_btab.html ]
G|-----------------------------------------------------
D|-----------------------------------------------------
A|--22222222-55555555-00000000-88-77777777-------------
E|------------------------------------------------------

Riff 3

G|-----------------------------------------------------
D|----345432--567654--345432---------------------------
A|--33------55------33------55555555-------------------
E|-----------------------------------------------------

Riff 4

G|-----------------------------------------------------
D|-----------------------------------------------------
A|--22222222--55555555--33333333--55--77---------------
E|-----------------------------------------------------

 ORDER:
Riff 1 2x    
Riff 2 1x   
Riff 3 1x
Riff 4 1x
Riff 1 2x
Riff 2 1x
Riff 4 1x
Riff 1 2x
Riff 2 2x
Riff 4 1x
Riff 1 6x

I know its not all right so if anyone has corrections
please e-mail me and i'll fix it.    

Comments