Gyroscope - Fast Girl Chords & Tabs

 

Fast Girl Chords & Tabs

Gyroscope Chords & Tabs

Version: 1 Type: Bass Tab

Fast Girl Bass Tab

   
Fast Girl - Gyroscope
Album - Are you Involved?
Tabbed By Elias Allanby (lpaustralia@hotmail.com)
www.thenumlocks.com



Intro
G|---------|
D|---------|
A|-3-3-----|
E|-----3-5-| 

G|---------------------------|
D|---------------------------|
A|-------------------3-3-----|
E|-0-0-3--0-0-3--0~------3-5-| x 2

Verse 1
G|---------------------------|
D|---------------------------|
A|-------------------3-3-----|
E|-0-0-3--0-0-3--0~------3-5-| x 2

G|-----------------------|
D|-----------------------|
A|-----------------------|
E|-5~--/--12~--/--15~~--\| 

G|---------|
D|---------|
A|-3-3-----|
E|-----3-5-| 

G|---------------------------|
D|---------------------------|
A|-------------------3-3-----|
E|-0-0-3--0-0-3--0~------3-5-| x 4

G|-----------------------|
D|-----------------------|
A|-----------------------|
E|-5~--/--12~--/--15~~--\| 


chorus
G|----------------------------------|
D|----------------------------------|
A|----------------------------------|
E|-0-0--3-3-\-8--8-8--3--3-3--3\5-5-| x 3

G|-------------------|----------|
D|-------------------|----------|
A|-------------------|--3-3-----|
E|-0-0--3-3-\-8--8-8-|------3-5-| 


Verse 2
G|---------------------------|
D|---------------------------|
A|-------------------3-3-----|
E|-0-0-3--0-0-3--0~------3-5-| x 4
[ Tab from: http://www.guitartabs.cc/tabs/g/gyroscope/fast_girl_btab.html ]
G|-----------------------|
D|-----------------------|
A|-----------------------|
E|-5~--/--12~--/--15~~--\| 


Chorus 
G|----------------------------------|
D|----------------------------------|
A|----------------------------------|
E|-0-0--3-3-\-8--8-8--3--3-3--3\5-5-| x 4


Bridge Prt 1 x 2
G|---------------------------------|
D|---------------------------------|
A|---------------------------------|
E|-0-0-0-0-0-0-0-0-5-5-5-5-5-5-5-5-|

G|---------------------------------------|
D|---------------------------------------|
A|---------------------------------------|
E|-8-8-x-x-8-8-8-x-x-8-8-8-x-x-8-8-8-8-8-|


G|---------------------------------|
D|---------------------------------|
A|---------------------------------|
E|-3-3-3-3-3-3-3-3-5-5-5-5-5-5-5-5-|

Bridge Part 2
G|---------------------------|
D|---------------------------|
A|-------------------3-3-----|
E|-0-0-3--0-0-3--0~------3-5-| x 7

G|------------------|
D|------------------|
A|------------------|
E|-0-0-3--0-0-3--0~-|


Final Chorus 
G|----------------------------------|
D|----------------------------------|
A|----------------------------------|
E|-0-0--3-3-\-8--8-8--3--3-3--3\5-5-| x 7

G|-------------------|
D|-------------------|
A|-------------------|
E|-0-0--3-3-\-8--8-8-|

www.thenumlocks.com