Gyroscope - Confidence In Confidentiality Chords & Tabs

 

Confidence In Confidentiality Chords & Tabs

Gyroscope Chords & Tabs

Version: 1 Type: Tab 0 ratings
1 star 2 stars 3 stars 4 stars 5 stars
comments

Confidence In Confidentiality Tab

   
Artist - Gyroscope 
Song - Confidence In Confidentiality
Transcribed By - Tony Trajkov 
Email Me At - trojantony_69@hotmail.com

(Drop D Tuning)

i noticed that there werent many gyroscope tabs up so i thought id 
put together one of their best songs. Didnt take me long to do it
and im pretty sure its close to 100% right. U might need to figure out
the timing and how many times each note is played but besides that
its as good as gold. 


| /  slide up
| \  slide down
| h  hammer-on
| p  pull-off
| ~  vibrato
| +  harmonic
| x  Mute note


Intro:
E|-----------------------------|----------------------------|
B|-----------------------------|----------------------------|
G|-----------------------------|----------------------------|
D|-----------------------------|----------------------------| x2
A|-----------------------------|----------------------------|
D|--9\5-5-4--0--9-9-9-9-9-9-9--|--5-5-4--0--9-9-9-9-9-9-9---|

Verse:
E|-----------------------------------------------------|
B|-----------------------------------------------------|
G|-----------------------------------------------------|
D|-----------------------------------------------------| x4
A|--4-4-4-4-4-4-4-4------------------------------------|
D|-------------------5-5-5-5-5-5-5-5--7-7-7-7-7-7-7-7--|

Pre-chorus:
E|-----------------------------------------|
B|-----------------------------------------|
G|-----------------------------------------|
D|-----------------------------------------| 
A|-----------------------------------------| 
D|--6-6-6-6-6-6-6-6-6-6-6-6-6-6-6-6--777---|

Chorus:
E|------------------------------------------------------|
B|------------------------------------------------------|
G|------------------------------------------------------|
D|------------------------------------------------------| x4
A|--4-4-4-4-4-4--2-2-2-2-2-2----------------------------|
D|----------------------------2-2-2-2-2-2--7-7-7-7-7-7--|

(Then come back with the Prechorus again)

Pre-chorus:
E|-----------------------------------------|
B|-----------------------------------------|
G|-----------------------------------------|
D|-----------------------------------------| 
A|-----------------------------------------| 
D|--6-6-6-6-6-6-6-6-6-6-6-6-6-6-6-6--777---|

(Then again with the intro just once)
Intro:
E|-----------------------------|----------------------------|
B|-----------------------------|----------------------------|
G|-----------------------------|----------------------------|
D|-----------------------------|----------------------------| 
A|-----------------------------|----------------------------|
D|--9\5-5-4--0--9-9-9-9-9-9-9--|--5-5-4--0--9-9-9-9-9-9-9---|
[ Tab from: http://www.guitartabs.cc/tabs/g/gyroscope/confidence_in_confidentiality_tab.html ]
Verse:
E|-----------------------------------------------------|
B|-----------------------------------------------------|
G|-----------------------------------------------------|
D|-----------------------------------------------------| x4
A|--4-4-4-4-4-4-4-4------------------------------------|
D|-------------------5-5-5-5-5-5-5-5--7-7-7-7-7-7-7-7--|

(Once again...)
Pre-chorus:
E|-----------------------------------------|
B|-----------------------------------------|
G|-----------------------------------------|
D|-----------------------------------------| 
A|-----------------------------------------| 
D|--6-6-6-6-6-6-6-6-6-6-6-6-6-6-6-6--777---|

(Chorus comes in again)
Chorus:
E|-------------------------------------------------------|
B|-------------------------------------------------------|
G|-------------------------------------------------------|
D|-------------------------------------------------------| x4
A|--4-4-4-4-4-4--2-2-2-2-2-2-----------------------------|
D|----------------------------2-2-2-2-2-2--7-7-7-7-7-7---|

(Now for the interlude)

E|--------------------------------------------------------|
B|--------------------------------------------------------|
G|--------------------------------------------------------|
D|--------------------------------------------------------|
A|--------------------------------------------------------|
D|--22-2222--77-7777--22-2222--77-7777--22-2222--77-6666--|

E|---------------------------------------------------------------|
B|---------------------------------------------------------------|
G|---------------------------------------------------------------|
D|---------------------------------------------------------------| x2
A|--4444444444444444444444444444-7777----------------------------|
D|-------------------------------------777777777777777744444444--|

(Now with the chorus)
Chorus:
E|------------------------------------------------------|
B|------------------------------------------------------|
G|------------------------------------------------------|
D|------------------------------------------------------| x4
A|--4-4-4-4-4-4--2-2-2-2-2-2----------------------------|
D|----------------------------2-2-2-2-2-2--7-7-7-7-7-7--|

Pre-chorus:
E|-------------------------------------------|
B|-------------------------------------------|
G|-------------------------------------------|
D|-------------------------------------------| 
A|-------------------------------------------| 
D|--6-6-6-6-6-6-6-6-6-6-6-6-6-6-6-6-6-6-6-6--|

(Now simpy end with the intro once again)
Intro:
E|-----------------------------|----------------------------|
B|-----------------------------|----------------------------|
G|-----------------------------|----------------------------|
D|-----------------------------|----------------------------| x2
A|-----------------------------|----------------------------|
D|--9\5-5-4--0--9-9-9-9-9-9-9--|--5-5-4--0--9-9-9-9-9-9-9---|

And thats that. heaps heaps easy song to learn and play.
Awesome band aswell. If u have any questions just email 
me at trojantony_69@hotmail.com

Id also like to thank my lovely girlfriend jacky for helping 
me out aswell......luv u lots xoxox.

TONEZ TAB.
Comments