Gym Class Heroes - Everydays Forecast Chords & Tabs

 

Everydays Forecast Chords & Tabs

Gym Class Heroes Chords & Tabs

Version: 1 Type: Bass Tab

Everydays Forecast Bass Tab

-------------------------------------------------------------------------------
			     Everyday's Forecast - Gym Class Heroes
-------------------------------------------------------------------------------

Tabbed By : Likien
e-mail: likien {dot} exe {at} hotmail {dot} com
Tuning: Standard 5-string (BEADG)

Intro
G|----------------------------------------------------|
D|-5-------5------------5---5-------------------------|
A|---5-7-----5-7----------5---------------------------|
E|---------------7--33--------7--22-2222-22-----------|
B|-------------------------------------------2-3-5-3--|
    ("You think you know...")
G|--------------------------------4--4444-4-4-4--------|
D|-5---------------------5---5-------------------------|
A|---5-7--------7----------5---------------------------|
E|----------------7------------7-----------------------|
B|------------------8----------------------------------|
[ Tab from: http://www.guitartabs.cc/tabs/g/gym_class_heroes/everydays_forecast_btab.html ]
Verse  x6
G|----------------------------------------------------|
D|-5-------5------------5---5-------------------------|
A|---5-7-----5-7----------5---------------------------|
E|---------------7--33--------7--22-2222-22-----------|
B|-------------------------------------------2-3-5-3--|

Chorus  x1
G|---------------------------------------|
D|----------------------------------7-7--|
A|----------0---3-----------0---3--------|
E|--0---3-----------0---3----------------|
B|---------------------------------------|

Verse  x6
Chorus x1
Verse  x2
Final chorus:
G|------------------------------------------------------------------------------|
D|--------------------------------10-----------------------------------------10-|
A|----------0---3---7---10---12-------(12)----------0---3---7---10-10---12------|
E|--0---3-----------------------------------0---3-------------------------------|
B|------------------------------------------------------------------------------|