Gyllene Tider - Sommartider Chords & Tabs

 

Sommartider Chords & Tabs

Gyllene Tider Chords & Tabs

Version: 1 Type: Bass Tab 0 ratings
1 star 2 stars 3 stars 4 stars 5 stars
comments

Sommartider Bass Tab

G--------------------------------------|
D--------------------------------------| x many times
A----0-0-0-0-0-0-0-0-0-0-0-0-0-0-0-0---|
E--------------------------------------|



G--------------------------------------|
D--------------------------------------| 
A----2-2-2-2-2-2-2-2-------------------|
E--------------------0-0-0-0-0-0-0-0---|



G-----------------------|
D-----------------------|
A----2-2-2-2-2-2-2-2----|
E-----------------------|


   
G-----------------------------------------|
D----0-0-0-0-0-0-0-0-2-2-2-2-2-2-2-2------|
A-----------------------------------------|
E-----------------------------------------|


G-----------------------------------------|
D--------------------0-0-0-0-0-0----------|
A----0-0-0-0-0-0-0-0-------------4-4------|
E-----------------------------------------|


G-----------------------------------------|
D-----------------------------------------|
A----2-2-2-2-2-2-2-2----------------------|
E--------------------0-0-0-0-0-0-0-0------|


G-----------------------------------------|
D----0-0-0-0-0-0-0-0-2-2-2-2-2-2-2-2------|
A-----------------------------------------|
E-----------------------------------------|


G-----------------------------------------|
D----0-0-0-0-0-0-0-0-2-2-2-2-2-2-2-2------|
A-----------------------------------------|
E-----------------------------------------|

[ Tab from: http://www.guitartabs.cc/tabs/g/gyllene_tider/sommartider_btab.html ]
G-----------------------------------------|
D--------------------0-0-0-0-0-0----------|
A----0-0-0-0-0-0-0-0-------------4-4------|
E-----------------------------------------|


G----------------------------------------------------|
D----------------------------------------------------|
A----2-2-2-2-2-2-2-2---------------------------------|
E--------------------0-0-0-0-0-0-0-0-0-0-0-0-0-0-0-0-|


G---------------------|
D---------------------| x3
A----0-0-0-0-0-0-0-0--|
E---------------------|


G---------------------|
D---------------------|
A---------------------|
E----2-2-2-2-0-0-0-0--|


G---------------------|
D---------------------| x3
A----0-0-0-0-0-0-0-0--|
E---------------------|


G---------------------|
D---------------------|
A---------------------|
E----2-2-2-2-0-0-0-0--|


G----------------------------------------------------|
D----------------------------------------------------|
A----2-2-2-2-2-2-2-2-----------------2-2-2-2-2-2-2-2-|
E--------------------0-0-0-0-0-0-0-0-----------------|


G-----------------------------------------|
D----0-0-0-0-0-0-0-0-2-2-2-2-2-2-2-2------|
A-----------------------------------------|
E-----------------------------------------|


G-----------------------------------------|
D--------------------0-0-0-0-0-0----------|
A----0-0-0-0-0-0-0-0-------------4-4------|
E-----------------------------------------|


G-----------------------------------------|
D-----------------------------------------|
A----2-2-2-2-2-2-2-2----------------------|
E--------------------0-0-0-0-0-0-0-0------|
Comments