Gyllene Tider - Juni Juli Augusti Chords & Tabs

 

Juni Juli Augusti Chords & Tabs

Gyllene Tider Chords & Tabs

Version: 1 Type: Tab

Juni Juli Augusti Tab

   
Here is the "cool" intro TAB !!

     W                   Q    E  E  E  E  Q       Q    E  E  E  E  Q     
E||-------------------|------------------------|------------------------|
B||-------------------|--0----0----------------|--0----0----------------|
G||--------- PAUS ----|----------2--0--2--0----|----------2--0--2-------|
D||-------------------|------------------------|-------------------2----|
A||-------------------|------------------------|------------------------|
E||-------------------|------------------------|------------------------|


  Q    E  E  E  E  Q       Q    E  E  E  E  Q       Q    E  E  E  E  Q     
------------------------|------------------------|------------------------|
--0----0----------------|--1----1--0-----0-------|--0----0----------------|
----------2--0--2--0----|-------------2-----0----|----------2--0--2--0----|
------------------------|------------------------|------------------------|
------------------------|------------------------|------------------------|
------------------------|------------------------|------------------------|

[ Tab from: http://www.guitartabs.cc/tabs/g/gyllene_tider/juni_juli_augusti_tab.html ]
  Q    E  E  E  E  Q       Q    E  E  E  E  Q       Q    E  E  E  E  Q     
------------------------|------------------------|------------------------||
--0----0----------------|--0----0----------------|--1----1--0-----0-------||
----------2--0--2-------|----------2--0--2--0----|-------------2-----0----||
-------------------2----|------------------------|------------------------||
------------------------|------------------------|------------------------||
------------------------|------------------------|------------------------||


Duration Legend
---------------
W - whole
H - half
Q - quarter
E - 8th
S - 16th
T - 32nd
X - 64th
. - note dotted
|-n-|  - n-tuplets


Tablature Legend
----------------
L - tied note
x - dead note
g - grace note
(n) - ghost note
> - accentuded note
NH - natural harmonic
AH - artificial harmonic
TH - tapped harmonic
SH - semi harmonic
PH - pitch harmonic
h - hammer on
p - pull off
b - bend
br - bendRelease
pb - preBend
pbr - preBendRelease
brb - bendReleaseBend
\n/ - tremolo bar dip
\n - tremolo bar dive
-/n - tremolo bar Release up
/n\ - tremolo bar inverted dip
/n - tremolo bar return
-\n - tremolo bar Release down
S - shift slide
s - legato slide
/ -  slide into from below or out of upwards
\ -  slide into from above or out of downwards
~ - vibrato
W - wide vibrato
tr - trill
TP - tremolo picking
T - tapping
S - slap
P - pop
< - fade in
^ - brush up
v - brush down