Gwen Stefani - What You Waiting For Chords & Tabs

 

What You Waiting For Chords & Tabs

Gwen Stefani Chords & Tabs

Version: 1 Type: Tab 0 ratings
1 star 2 stars 3 stars 4 stars 5 stars
comments

What You Waiting For Tab

Gwen Stefani
What you waiting for


Main Riff

e-------------------|
B-------------------|
G-5-3-5-3-55-3--5-3-|
D-5-3-5-3-55-3--5-3-|
A-3-1-3-1-33-1--3-1-|
E-------------------|

Chorus
[ Tab from: http://www.guitartabs.cc/tabs/g/gwen_stefani/what_you_waiting_for_tab.html ]
e------------------------------------|
B------------------------------------|
G-33333333-5555555-5-3-5-3-55-3--5-3-|
D-33333333-5555555-5-3-5-3-55-3--5-3-|
A-11111111-3333333-3-1-3-1-33-1--3-1-|
E------------------------------------|


Main Riff again

e-------------------|
B-------------------|
G-5-3-5-3-55-3--5-3-|
D-5-3-5-3-55-3--5-3-|
A-3-1-3-1-33-1--3-1-|
E-------------------|

Chorus again

e------------------------------------|
B------------------------------------|
G-33333333-5555555-5-3-5-3-55-3--5-3-|
D-33333333-5555555-5-3-5-3-55-3--5-3-|
A-11111111-3333333-3-1-3-1-33-1--3-1-|
E------------------------------------|
Comments