Gwar - Tune From Da Moon Chords & Tabs

 

Tune From Da Moon Chords & Tabs

Gwar Chords & Tabs

Version: 2 Type: Bass Tab 0 ratings
1 star 2 stars 3 stars 4 stars 5 stars
comments

Tune From Da Moon Bass Tab

Tune From Da Moon - GWAR
tabbed by: ryan b

***rest for drums***

Riff A: (36 times)
A-------------------
Eb--5555--4-4--3-0--

***break, then come in on the fast part***

Riff B: (4 times)
A-----------3-4-4-----------------
Eb--5--5-5---------5--5-5--3-0-0--

Riff C: (once)
A----------------("You broke it!")--
Eb--77-7-77-7-7---------------------

Riff D: (once)
G----------------7-5------------
D---------------------7-5-------
A--------------------------7-5--
Eb--55-5-55-5-5-----------------
[ Tab from: http://www.guitartabs.cc/tabs/g/gwar/tune_from_da_moon_btab_ver_2.html ]
Riff C: (once)
Riff D: (once)
Riff B: (4 times)
Riff C: (once)

Riff E: (once)
A----------------("Why'd you break it?")--
Eb--55-5-55-5-5---------------------------

Riff C: (once)
Riff D: (once)
Riff B: (twice)

Riff F: (once)
G-----------------------------------------------7-5--------------
D---------------------------------------------------7-5----------
A-------------------------------------------------------7-5------
Eb--5-("Go to the moon.")-5-("Soon sail.")-5-5--------------7-5--

Riff B: (twice) - Ending on A (E string 5th fret)

Comments