Gwar - Suck On My Thumb Chords & Tabs

 

Suck On My Thumb Chords & Tabs

Gwar Chords & Tabs

Version: 1 Type: Tab 0 ratings
1 star 2 stars 3 stars 4 stars 5 stars
comments

Suck On My Thumb Tab

   
Gwar | suck on my thumb.
Tabbed by Freak | FREAK_999@hotmail.com.
  
b = bend
> = slide doun the neck
~ = give a bit of chorus

                    (part 1)
[----------------------------------------------------]
[----------------------------------------------------]
[-14-14-13-11----------11>--14-14-13-11------14-14-13]
[-------------14-11-14------------------14~>---------]
[----------------------------------------------------]
[----------------------------------------------------]

[-------------------------------0----0-0---0-0---0-0-]
[------------------------12------------0-----0-----0-]
[-11----------11-----11b----11-----------------------]
[----14-11-14----14----------------------------------]
[----------------------------------------------------]
[----------------------------------------------------]
[ Tab from: http://www.guitartabs.cc/tabs/g/gwar/suck_on_my_thumb_tab.html ]
[-----------0--]
[-----12-------]
[-11b----11----]    (play part one again)
[--------------]
[--------------]
[--------------] 

                      (part 2)
[----------------------------------------------------]
[----------------------------------------------------]
[-14-14-13-11-14-14-13-11-14-13-11-13-14-13-11-13-14-]

[-----------------------------------]
[-----------------------------------]
[-16-14-13-14-16-18-19-18-16-18-14--]

[----------------------------------------------------]
[----------------------------------------------------]
[-14-14-13-11-14-14-13-11-14-13-11-14-13-11-13-14-16-]

[---------------------------------------------]
[---------------------------------------------]
[-14-13-16-14-13-16-14-13-16-14-13-14-16-18b--]
                         (part one again)
that is pretty much it. Just listen to the song to get the right speed. 
:: Ultimate Guitar Archive :: 
http://www.ultimate-guitar.com 

Comments