Gwar - Bonesnapper Chords & Tabs

 

Bonesnapper Chords & Tabs

Gwar Chords & Tabs

Version: 1 Type: Tab 0 ratings
1 star 2 stars 3 stars 4 stars 5 stars
comments

Bonesnapper Tab

   
Tune down to e flat

e|----------12----------------15----------------12----------------15-------|
b|-12-13-12----13-12-12-13-12----13-12-12-13-12----13-12-12-13-12----13-12-|
g|-------------------------------------------------------------------------|
d|-------------------------------------------------------------------------|
a|-------------------------------------------------------------------------|
e|-------------------------------------------------------------------------|

play this part really fast

e|-0-0-0-0-(12)-0-0-0-0-(12)-0-0-0-15-14-12------0-(12)-0-0-0-0-(14)-------|
b|------------------------------------------15~~---------------------------|
g|-------------------------------------------------------------------------|
d|-------------------------------------------------------------------------|
a|-------------------------------------------------------------------------|
e|-------------------------------------------------------------------------|

e|-0-0-0-0-(15)-0-0-0-0-(17)-0-0-0-0-(15)-0-0-0-0-(19)-0-0-0-0-(17)-0-0-0-0|
b|-------------------------------------------------------------------------|
g|-------------------------------------------------------------------------|
d|-------------------------------------------------------------------------|
a|-------------------------------------------------------------------------|
e|-------------------------------------------------------------------------|
[ Tab from: http://www.guitartabs.cc/tabs/g/gwar/bonesnapper_tab.html ]
e|-(15)-0-0-(17)-0-0-(15)-0-0-(14)-0-0-(15)-0-0-(14)-0-0-(12)-0-0-(14)-0-0-|
b|-------------------------------------------------------------------------|
g|-------------------------------------------------------------------------|
d|-------------------------------------------------------------------------|
a|-------------------------------------------------------------------------|
e|-------------------------------------------------------------------------|

e|-(12)-0-0-(10)-0---------------------------------------------------------|
b|------------------17~~-------------------/13-13~-------------------/15-15~
g|-----------------------------------------/12-12~-------------------/14-14~
d|------------------------14-15-14-15-14-12---------14-15-14-15-14-12------|
a|-------------------------------------------------------------------------|
e|-------------------------------------------------------------------------|

e|-------------------------------------------------------------------------|
b|------------------/13-13~------------------------------------------------|
g|------------------/12-12~--17-16-14--------------------------------------|
d|-14-15-14-15-14-12------------------17~~---------------------------------|
a|-------------------------------------------------------------------------|
e|-------------------------------------------------------------------------|

e|----------------------------------------------------------------b12~~~~~-|
b|-------------------------------------------------------------------------|
g|-palm muted slide up to highest fret picking as fast as you can----------|
d|-------------------------------------------------------------------------|
a|-------------------------------------------------------------------------|
e|-------------------------------------------------------------------------|

 ~= let note ring
 b= bend
 /= slide
()= play note quickly

 well there it is,pretty fuckin cool solo but not too hard. i think its pretty
accurate, so you'd better like it
Comments