Gwar - Baby Raper Chords & Tabs

 

Baby Raper Chords & Tabs

Gwar Chords & Tabs

Version: 1 Type: Tab 0 ratings
1 star 2 stars 3 stars 4 stars 5 stars
comments

Baby Raper Tab

   
Tuned to E Flat


E--------------------------------------------------------------------|
B--------------------------------------------------------------------|
G--------------------------------------------------------------------|
D--------------------------------------------------------------------|
A---5-4-3-4-7-9-8-7-6-5-4-5-7-9-8-7-6-5-4-5-7-6-5-4-5-7-9~--99-7-99--|
E---3-2-1-2-5-7-6-5-4-3-2-3-5-7-6-5-4-3-2-3-5-4-3-2-3-5-7~--77-5-77--|

-------------------|
-------------------|
-------------9-11--|
---77-6-7-11-7--9--|
---55-4-5--9-------|
-------------------|


E----------------------------------------------------------------|
B----------------------------------------------------------------|
G----------------------------------------------------------------|
D----------------------77-6-77-11----------------------99-9-7----|
A---99-7-99-7-99-7-99--55-4-55--9-7--99-7-99-7-99-7-99-77-7-5-7--|
E---77-5-77-5-77-5-77-------------5--77-5-77-5-77-5-77--------5--|
[ Tab from: http://www.guitartabs.cc/tabs/g/gwar/baby_raper_tab.html ]
-----------------------------------------|
-----------------------------------------|
-----------------------------------------|
-----------------------12-11-11-999------|
--99-7-99-7-99-7-99-12-1O--9--9-777-777--|
--77-5-77-5-77-5-77-1O--------------555--|


E---------------------------|
B---------------------------|
G------6666-----------------|
D--44--4444---77--9999---4--|
A--22-------7-55--7777-7-2--|
E-----------5----------5----|


E-------------------------------|
B-------------------------------|
G--------3333-6666--------------|
D---4444-1111-4444---7--9999----|
A---2222-----------7-5--7777-7--|
E------------------5---------5--|


E-------------------------------------------------------------------------|
B-------------------------------------------------------------------------|
G-------------------------------------------------------------------------|
D-2-4444-2-4444-2-4444-2-44444444444-2-44444444444-2-5-5555---------2---4-|
A-O-2222-O-2222-O-2222-O-22222222222-O-22222222222-O-3-3333-5-44444-O-5-2-|
E-----------------------------------------------------------3-22222---3---|

-------|
-------|
-------|
-2---4-|
-O-5-2-|
---3---|
Comments