Guttermouth - What You Like About Me Chords & Tabs

 

What You Like About Me Chords & Tabs

Guttermouth Chords & Tabs

Version: 1 Type: Tab 0 ratings
1 star 2 stars 3 stars 4 stars 5 stars
comments

What You Like About Me Tab

Tuning: EADGbe

Intro

guitar 1
e|-------------------------------------------------------------------------|
B|-------------------------------------------------------------------------|
G|-------------------------------------------------------------------------|
D|---4444---7-777----------10999-----4444---7777----------10-9-7-----------|
A|---2222---5-555----777----8777-----2222---5555---7777----8-7-5-----------|
E|-------------------555---------------------------5555--------------------|

the first two times around the chords are pm

guitar 2 - comes in after two times and plays this twice

e|-------------------------------------------------------------------------|
B|-------------------------------------------------------------------------|
G|--8888-7777-6666-4444---8888-7777-666666666------------------------------|
D|-------------------------------------------------------------------------|
A|-------------------------------------------------------------------------|
E|-------------------------------------------------------------------------|
[ Tab from: http://www.guitartabs.cc/tabs/g/guttermouth/what_you_like_about_me_tab.html ]
the verse is both guitars playing the intro of guitar 1 without pm
the chorus is both intro parts without pm
..and then there's a verse with the chords muted and another chorus

bridge - repeated 4 times

e|-------------------------------------------------------------------------|
B|-------------------------------------------------------------------------|
G|---------------888-7777--------------------------------------------------|
D|--7--7---5-5---888-7777--------------------------------------------------|
A|--7--7---5-5---666-5555--------------------------------------------------|
E|--5--5---3-3-------------------------------------------------------------|

then there's a verse with only the ending chords played with the bass

ending - a difference of ONE chord

e|-------------------------------------------------------------------------|
B|-------------------------------------------------------------------------|
G|-------------------------------------------------------------------------|
D|---4----7---------10999---4---7--------10-9--7---------------------------|
A|---2----5-----5----8777---2---5---5-----8-7--5---------------------------|
E|--------------3-------------------3--------------------------------------|

...and so on, there's a bit of muting on the ending but it's reaalll simple

i'm pretty sure this is 100% right.. give or take a few percentages
Comments