Guttermouth - Shes Got The Look Chords & Tabs

 

Shes Got The Look Chords & Tabs

Guttermouth Chords & Tabs

Version: 2 Type: Tab 0 ratings
1 star 2 stars 3 stars 4 stars 5 stars
comments

Shes Got The Look Tab

   
Song: Sheís got the look
Artist: Guttermouth
Tabbed by: Deadmeat
E-mail: the_xxxxx@hotmail.com

This song is insane, and great fun to play if you can manage to perform the
solo...I think this tab is 95% correct, Iím especially proud of the solo, might
have some errors in it, but the most is good, or at least sounds good :P. Should
you find an error, donít shoot, mail. The song is played with two guitars, even
tough the only time there are two different parts is in the solo. Both guitars
are distorted and are in normal tuning (E A D G B E). Have fun!

pm = palm muted
h  = hammer-on
p  = pull-off
*  = play 4 times
%  = play 8 times (Iím so lazy :P)

-------
|Intro|
-------

e|-------------------||
B|-------------------||
G|---------9-99------||
D|---9-999-9-99-9----||
A|---9-999-7-77-9----|| 
E|---7-777------7----||

-------
|Verse|
-------
                           3x                            3x
e|--------||---------------||-----------------||---------||----||
B|--------||---------------||-----------------||---------||----||
G|--------||#-------------#||-----------------||#---9---#||----||
D|--------||#---9-9-------#||----9-9----------||#-9-9-6-#||-9--||
A|--67678-||-9-97-76-67678-||-9-97-79---------||--9-7-6--||-9--|| 
E|--45456-||-7-7---4-45456-||-7-7---7---45456-||--7-*-4--||-7--||
  Pm..................................            *   %
                           3x                            3x
e|--------||---------------||-----------------||---------||------||
B|--------||---------------||-----------------||---------||------||
G|--------||#-------------#||-----------------||#---9---#||------||
D|--------||#---9-9-------#||----9-9----------||#-9-9-6-#||-9\6--||
A|--67678-||-9-97-76-67678-||-9-97-79---------||--9-7-6--||-9\6--|| 
E|--45456-||-7-7---4-45456-||-7-7---7---45456-||--7-*-4--||-7\4--||
  Pm..................................            *   %     *

--------
|Chorus|
--------
                 4x
e|---------------||--------------------|-----||
B|---------------||--------------------|-----||
G|-----9--6--9--#||-----9-----9-----9--|-----||
D|--9--9--6--9--#||--9--9--9--9--9--9--|--9--||
A|--9--7--4--7---||--9--7--9--7--9--7--|--9--||
E|--7--*--*--*---||--7--*--7--*--7--*--|--7--||
    *                *     *     *        *
------
|Solo|
------

During the solo, the 2nd guitar plays this:
                      4x                     3x
e|--------------------||---------------------||-----------||
B|--------------------||---------------------||-----------||
G|------9-9----------#||#------9-9-6-6-9-9--#||------9-9--||
D|--9-9-9-9-6-6-7-7--#||#--9-9-9-9-6-6-9-9--#||--9-9-9-9--||
A|--9-9-7-7-6-6-7-7---||---9-9-7-7-4-4-7-7---||--9-9-7-7--||
E|--7-7-----4-4-5-5---||---7-7---------------||--7-7------||

Here it is, my shot at the solo:
[ Tab from: http://www.guitartabs.cc/tabs/g/guttermouth/shes_got_the_look_tab_ver_2.html ]
e|----------------------------------------------------------------||
B|----------------------------------------------------------------||
G|-8-889-998-889-11-8-889-998------8--89--88--89-11--8-8898-------||
D|---------------------------979-----9---9---9-------------97969--||
A|----------------------------------------------------------------||
E|----------------------------------------------------------------||

e|-----------------------------------------------------||
B|-12-12-12-12-12-14-12-------12-12-12-12-12-14-12-----||
G|----------------------13-------------------------13--||
D|-----------------------------------------------------||
A|-----------------------------------------------------||
E|-----------------------------------------------------||

e|------------------------------12-----12-16-12-12h16p12-19~~~~--||
B|-----12------12------12-----12--12-12--------------------17~~--||
G|---13--13--13--13--13--13-13---------------------------16~~~~--||
D|-14------14------14--------------------------------------------||
A|---------------------------------------------------------------||
E|---------------------------------------------------------------||

--------
|Bridge|
--------

Not sure if this is played by the bass, the 2nd guitar, or both...

e|--------------------||
B|--------------------||
G|#------------------#||
D|#------------------#||
A|------7777----------||
E|--7777----44445555--||
 pm...................

-------
|Verse|
-------

e|---------||-----||
B|---------||-----||
G|#---9---#||-----||
D|#-9-9-6-#||-9\6-||
A|--9-7-6--||-9\6-|| 
E|--7-*-4--||-7\4-||
    *   %     *

--------
|Chorus|
--------
                 8x                      2x
e|---------------||----------------------||-----||
B|---------------||----------------------||-----||
G|-----9--6--9--#||#-----9-----9-----9--#||-----||
D|--9--9--6--9--#||#--9--9--9--9--9--9--#||--9--||
A|--9--7--4--7---||---9--7--9--7--9--7---||--9--||
E|--7--*--*--*---||---7--*--7--*--7--*---||--7--||
    *                *     *     *        *

Lyrics:
she likes to read
i like tv
she's checking out my good friend steve
she likes a beer
i like a shot
her parents think i'm selling pot

she likes the boys in the band
she rollerblades down the strand
when i pinch her butt in public
she complains
the best years of my life washed
down the...

i like to drive
she wants to walk
she caught me jacking in my sock
i like to drink
she likes to dance
i'm drunk again
off come my pants

she likes the boys in the band
i dig the surf / she likes the sand
when i come home late she's got
that look
i'm not talkin' bout that
jordache look

for you i'd do it
just for you i'd do it
i would wash my car
get a job
odor eaters for my shoes
for you i'd do it
for you
for you

i guess our eyes
will never meet
mark, please put down
the toilet seat

she likes to kiss
i'd like to fuck
all her friends
think i'm a schmuck

she did the boys in the band
i guess i'll be a single man
i used to want to sleep in
she'd complain
the best years of my life washed
down the drain

i'll wash my car
get a job
odor eaters for my shoes
i'll recycle all my beer cans
like i promised i would do
i will cancel my subscriptions
to juggs and beaver hunt
just for you i'll do it
just for you - for you
Comments