Guttermouth - Shes Got The Look Chords & Tabs

 

Shes Got The Look Chords & Tabs

Guttermouth Chords & Tabs

Version: 1 Type: Tab 0 ratings
1 star 2 stars 3 stars 4 stars 5 stars
comments

Shes Got The Look Tab

-----------------------------------------------------------------------------
			     She's Got the Look - Guttermouth
-----------------------------------------------------------------------------

By: Robin Krier  

I'd never thought I'd hear a Guttermouth song in a commercial, but lo and behold
this one was used for a "Jay and Silent Bob Strike Back" commercial, tho I 
seriously doubt it's on the soundtrack.

 intro		   verse			    x4
e|------------------|---------------------------|----------------------------|
B|--------9--9-9----|---------------------------|----------------------------|
G|-8--8-8-9--9-9-8--|-----------------8-9-------|----------------------------|
D|-9--9-9-9--9-9-9--|-------------9---8-9-------|----------------------------|
A|-9--9-9-7--7-7-9--|-------------9---6-7-------|----------------------------|
E|-7--7-7--------7--|--4-5-4-5-4--7---------5-4-|--4-5-4-5-------------------|
			   PM|-----------------------|
  Bridge  				 x3
e|------------------------------|--------------------------------------------|
B|------------------------------|--------------------------------------------|
G|-----------9--9-9-9-----------|-----------9--9-9---------------------------|
D|-9--9-9-9--9--9-9-9--6--6-6-6-|--9--9-9-9-9--9-9-9-9-9-9-------------------|
A|-9--9-9-9--7--7-7-7--6--6-6-6-|--9--9-9-9-7--7-7-9-9-9-9-------------------|
E|-7--7-7-7------------4--4-4-4-|--7--7-7-7--------7-7-7-7-------------------|
[ Tab from: http://www.guitartabs.cc/tabs/g/guttermouth/shes_got_the_look_tab.html ]
 Chorus "For you I'd do it..."	   x4			   x3
e|--------------------------------------|-----------------|------------------|
B|--------------------------------------|-----------------|------------------|
G|-----------9--9-9--------------9--9-9-|----------9--9-9-|--8---------------|
D|-9--9-9-9--9--9-9-11--11-11-11-9--9-9-|-9--9-9-9-9--9-9-|--9---------------|
A|-9--9-9-9--7--7-7-11--11-11-11-7--7-7-|-9--9-9-9-7--7-7-|--9---------------|
E|-7--7-7-7----------9---9--9--9--------|-7--7-7-7--------|--7---------------|

 Solo
e|-----------------------------|-------------------------------|
B|-----------------------------|-------------------------------|
G|-8--8-8-9--9-9--8--8-8--9\11-|-8--8-8--9--9-9--9-8-----------|
D|-----------------------------|---------------------9---7---9-|
A|-----------------------------|-------------------------------|
E|-----------------------------|-------------------------------|

e|-----------------------------|-------------------------------|
B|-----------------------------|-------------------------------|
G|-8------9------8------9--11--|-8--8-8--9--9-9------9---7---9-|
D|---7\9-----7\9----7\9--------|-----------------11------------|
A|-----------------------------|-------------------------------|
E|-----------------------------|-------------------------------|
					    x2			 x3
e|---------------------------------|--------------------|--------------------|
B|-12--12-12-12--12-12-12-14-12----|---9-12-9----9-12-9-|--------------------|
G|------------------------------13-|-9---------9--------|-can't-figure-out---|
D|---------------------------------|--------------------|-last-measure,-dammit!!
A|---------------------------------|--------------------|--------------------|
E|---------------------------------|--------------------|--------------------|
Play bridge PM'd x8 and then break into the chorus to close...

I can't tell if Davis is playing harmonics or what, but I listened to that
last measure a thousand times and cannot figure it out. If anyone else can,
please let me know.  

Comments