Guttermouth - Shes Got The Look Chords & Tabs

 

Shes Got The Look Chords & Tabs

Guttermouth Chords & Tabs

Version: 1 Type: Bass Tab 0 ratings
1 star 2 stars 3 stars 4 stars 5 stars
comments

Shes Got The Look Bass Tab

Artist:Guttermouth
Song:She's got the look
Album:Covered With Ants

Verse 1
G----------------
D----------------
A----7-7---------
E-7-7----4-45457-

Verse 2(She Likes The Boys In The Band)
G------------------
D------------------
A-----7777---------
E-7777----44444444-

Verse 1
Verse 2

Chorus 1(For You I'd Do It)
G--------------------
D--------------------
A-----7777-4444-7777-
E-7777---------------

Chorus 2(For You For You)
G------------------------------
D------------------------------
A-----7777----7777----7777-----
E-7777----7777----7777----7777-
[ Tab from: http://www.guitartabs.cc/tabs/g/guttermouth/shes_got_the_look_btab.html ]
Bridge 1(The One With The Lead Guitar)
G-------------------------
D-------------------------
A---77--------------------X4
E-77--44-55---------------

G-------------------------
D-------------------------
A---77-44-77--------------X3
E-77----------------------

G-------------------------
D-------------------------
A---77--------------------
E-77----------------------

Bridge 2(Bass Only)
G-------------------
D-------------------
A-----7777----------
E-7777----4444-5555-

Verse 2
G------------------
D------------------
A-----7777---------
E-7777----44444444-

Chorus 1
G-------------------
D-------------------
A-----7777-4444-7777
E-7777--------------

Chorus 2
G------------------------------
D------------------------------
A-----7777----7777----7777-----
E-7777----7777----7777----7777-
Comments