Guttermouth - Pee In The Shower Chords & Tabs

 

Pee In The Shower Chords & Tabs

Guttermouth Chords & Tabs

Version: 2 Type: Bass Tab 0 ratings
1 star 2 stars 3 stars 4 stars 5 stars
comments

Pee In The Shower Bass Tab

Guttermouth
Pee In The Shower
Tabbed By Daniel182

Intro(00:05)
G|-------------------------------------|
D|-------------------------------------|
A|-----77-7-44-4-5-7-----77-7-44-4-5-5-|x1
E|-55-5--------------55-5--------------|

Verse 1(00:10)
G|-----------------------------------|
D|-----------------------------------|
A|----77-7-44-4-5-7----77-7-44-4-542-|x4
E|-55-5------------55-5--------------|

Chorus 1(00:29)
G|-----------------------|
D|-----------------------|
A|----------44--------77-|x2
E|-55-00-55---55-00-55---|
[ Tab from: http://www.guitartabs.cc/tabs/g/guttermouth/pee_in_the_shower_btab_ver_2.html ]
Pre Verse(00:38)
G|---------------------------------|  |------------------------------|
D|---------------------------------|  |------------------------------|
A|-------4------5------7-55555-4-0-|x1|-------4------5------7-5-4542-|x1
E|-555555-777777-999999------------|  |-555555-777777-999999---------|

Verse 2(00:48)
G|-----------------------------------|
D|-----------------------------------|
A|----77-7-44-4-5-7----77-7-44-4-542-|x4
E|-55-5------------55-5--------------|

Chorus 2(01:07)
G|-----------------------|
D|-----------------------|
A|----------44--------77-|x2
E|-55-00-55---55-00-55---|

Bridge(01:17)
G|---------------------------------|  |-------------------|
D|---------------------------------|  |-------------------|
A|-------4------5------7-55555-4-0-|x4|-22222222-55555555-|
E|-555555-777777-999999------------|  |-------------------|

Chorus 3(01:46)
G|-----------------------|  |----|
D|-----------------------|  |----|
A|----------44--------77-|x4|-0~-|x1
E|-55-00-55---55-00-55---|  |----|

thats it! Please rate this tab!
Comments