Guttermouth - Pee In The Shower Chords & Tabs

 

Pee In The Shower Chords & Tabs

Guttermouth Chords & Tabs

Version: 1 Type: Bass Tab 0 ratings
1 star 2 stars 3 stars 4 stars 5 stars
comments

Pee In The Shower Bass Tab

Tabbed By Gip

INTRO/CHORUS
|----------------------------------------|
|----------------------------------------|
|------7-77-4-44-5-7-------7-77-4-44-5-5-|
|-5-55----------------5-55---------------|

VERSE
|--------------------------------------------|
|--------------------------------------------|
|------7--7-4--4-5-4-7-------7--7-4--4-5-4-0-|
|-5--5------------------5--5-----------------|
[ Tab from: http://www.guitartabs.cc/tabs/g/guttermouth/pee_in_the_shower_btab.html ]
"NOT ME..."
|----------------------------------------
|----------------------------------------
|----------555555-5-777777-7-5-5-5-5-4-0-
|-555555-5-------------------------------

----------------------------|
----------------------------|
----------555555-5-777777-7-|
-555555-5-------------------|


BRIDGE
|-------------------------------------------|
|-------------------------------------------|
|-5-5-5-5-4-0--------------4--------------5-|
|--------------5-5-5-5-5-5----7-7-7-7-7-7---|


----------------| |-------------------------|
--------------2-| |-------------------------|
--4-4-4-4-4-4---| |-222222222-xxx-444444444-|
----------------| |-------------------------|
               X2                          X2

easy shit
Comments