Guttermouth - Lipstick Chords & Tabs

 

Lipstick Chords & Tabs

Guttermouth Chords & Tabs

Version: 2 Type: Tab 0 ratings
1 star 2 stars 3 stars 4 stars 5 stars
comments

Lipstick Tab

-------------------------------------------------
  Lipstick - Guttermouth
-------------------------------------------------

Tabbed by:Simon Abbottsmith
Email:Simo__86@hotmail.com (double underscore)

Tuning:EADGBE

Verse:
e|--------------------------------------------|
B|--------------------------------------------|
G|----------4-4-4---5-5-5---7-7-7-7-7-7-7-7---|
D|--5-5-5---4-4-4---5-5-5---7-7-7-7-7-7-7-7---|
A|--5-5-5---2-2-2---3-3-3---5-5-5-5-5-5-5-5---|
E|--3-3-3-------------------------------------|

Chorus:
same chords as the verse but with slightly modified rythem
[ Tab from: http://www.guitartabs.cc/tabs/g/guttermouth/lipstick_tab_ver_2.html ]
Solo:
e|------------------------------------------------------|
B|------------------------------------------------------|
G|------------------------------------------------------|
D|-----4--5--7------4--5------7------------7------------|
A|--5--2--3--5---5--2--3--7---5--4--5--7---5--4--5--7---|
E|--3------------3--------5------2--3--5------2--3--5---|
it would be a hell of alot of useless tabbing to write the whole solo out, so
i've just given you the power chords to pick aroung and the rythem is pretty
easy to pick up of you listen to the song.
just know that each part starts on the higher note and then alternates
between the higher and lower note.

Bridge:
firstly is picking around the same chords as in the verse then to normal
strumming, sound is clean until right at the end when the distortion kicks
back in

On a final note the solo at the end is exactly the same as the one tabbed
above

All in all a pretty easy song, any comments would be appreciated
(e-mail at top)

See ya's
Comments