Guttermouth - High Balls Chords & Tabs

 

High Balls Chords & Tabs

Guttermouth Chords & Tabs

Version: 1 Type: Tab 0 ratings
1 star 2 stars 3 stars 4 stars 5 stars
comments

High Balls Tab

Guttermouth
High Balls

This is an awesome guttermouth song.. and no ones ever tabbed it..
So here it is finally.. it is 99% correct i do believe..
Email me at Youngsville_Sucks@hotmail.com if you think otherwise
(Normal Tuning)

  Intro - Guitar 1 (played throughout solo)

|----------------------------------------------------------------------------------------------------------|
|-------6-------------------------6-------------------------6----------------------------------------------|
|-----6---6----------5----------6---6----------3----------6---6----------5------------3----------6---------|
|---6-------6------6---6------6-------6------4---4------6-------6------6---6--------4---4------6--------6--|
|-4--------------6-------6--4--------------4-------4--4--------------6-------6----4-------4--4--------6----|
|--------------4-------------------------2-------------------------4------------2-------------------4------|


  Solo - Guitar 2

|---------------------------------------------------------|
|---------------------------------------------------------|
|---------------------------------------------------------|
|---------------------------------------------------------|
|--------6/8-6------------8-9--9-8--------6/8-6---6-------|
|--9----9---------9---9/11--------11-9-8-9---------9-8-6--|


|--------------------------------------------------------------------------------------------------------------------|
|--------------------------------------------------------------------------------------------------------------------|
|-------------------8/10-8---8--------------8-10-10/11---11-10-9--------8/10-8---8-----------------------------------|
|-/6--8--6--/11---11----------11-10-11----11--------------------11-10-11----------11-10--/11-----11-10-11---------11-|
|---------------------------------------------------------------------------------------------------------11-11-11---|
|--------------------------------------------------------------------------------------------------------------------|

  "Imagine my friend..."                                                            
more good times"
|----------------------------------------------------------------------------------------------------------|
|-------6-------------------------6-------------------------6----------------------------------------------|
|-----6---6----------5----------6---6----------3----------6---6----------5------------3----------6---------|
|---6-------6------6---6------6-------6------4---4------6-------6------6---6--------4---4------6--------6--|
|-4--------------6-------6--4--------------4-------4--4--------------6-------6----4-------4--4--------6----|
|--------------4-------------------------2-------------------------4------------2-------------------4------|

  "What would you do.."                         "..Til we are pissed off our arse"
|------------------------------------------------------------------------------|
|------------------------------------------------------------------------------|
|-6----6---------------6-------------6---6----------------------6------------6-|
|-6--6-6--6-----6-----6-6------------6--6-6---6---6----4---4----6--6--6------6-|   
|-4-4--4--6-----6--4-4---4-8-8-9-8-6-4-4---4--6--6-6---4--4-4---4-4---6-6-6--4-|
|---------4-4-4-4-----------------------------4-4---4--2-2---2--------4--------|
(I'm not sure about this part.. it might be played by 2 guitars..
 but it sounds good like this)

Verse
[ Tab from: http://www.guitartabs.cc/tabs/g/guttermouth/high_balls_tab.html ]
 "Day by day they take our freedom.."
|------------------------------------------------------------------------------------|
|------------------------------------------------------------------------------------|
|-6-6--6-6--6-6--6-6------------------------6-6--6-6--6-6--6-6-----------------------|
|-6-6--6-6--6-6--6-6---6-6--6-6--6-6--6-6---6-6--6-6--6-6--6-6---4-4--4-4--4-4--4-4--|
|-4-4--4-4--4-4--4-4---6-6--6-6--6-6--6-6---4-4--4-4--4-4--4-4---4-4--4-4--4-4--4-4--|
|----------------------4-4--4-4--4-4--4-4------------------------2-2--2-2--2-2--2-2--|

                                   "..And we'll drink on and on and on and on"
|------------------------------------------------------------------------------|
|------------------------------------------------------------------------------|
|-6-6--6-6--6-6--6-6---------------------------------------------6-6-x---------|
|-6-6--6-6--6-6--6-6---6-6--6-6--6-6--6-6---4-4--4-4--4-4--4-4---4-4-x--6-6-x--|
|-4-4--4-4--4-4--4-4---6-6--6-6--6-6--6-6---4-4--4-4--4-4--4-4---4-4-x--6-6-x--|
|----------------------4-4--4-4--4-4--4-4---2-2--2-2--2-2--2-2----------4-4-x--|

Chorus

  "All i want..."                          "High balls for everyone.."
|-----------------------------------------------------------------------------------------------------------|
|-----------------------------------------------------------------------------------------------------------|
|-6--6-6-6--6-6-6-----------------6--6-6-6--10-10-11-8-6--6--6-6-6-6--------------------------------6-6-----|
|-6--6-6-6--6-6-6-6--6-6-6--6-6-6-6--6-6-6--10-10-11-8-6--6--6-6-6-6-6--6-6-6--6-6-6--4-x-4--4-4-4--6-6-6-6-|
|-4--4-4-4--4-4-4-6--6-6-6--6-6-6-4--4-4-4--8--8--9--6-4--4--4-4-4-4-6--6-6-6--6-6-6--4-x-4--4-4-4--4-4-6-6-|
|-----------------4--4-4-4--4-4-4------------------------------------4--4-4-4--4-4-4--2-x-2--2-2-2------4-4-|

The thing after the chorus

  "Hold on Jackie.."                                                                   
cheers to you.."
|---------------------------------------------------------------------------------------------------------------------|
|---------------------------------------------------------------------------------------------------------------------|
|-6--6-6-6-6-6-6------------------6--6-6-6-6-6-6------------------6--6-6-6-6-6-6------------------------------6-6-----|
|-6--6-6-6-6-6-6--6--6-6-6-6-6-6--6--6-6-6-6-6-6--4--4-4-4-4-4-4--6--6-6-6-6-6-6--6--6-6-6-6-6-6--4x4--4-4-4--6-6-6-6-|
|-4--4-4-4-4-4-4--6--6-6-6-6-6-6--4--4-4-4-4-4-4--4--4-4-4-4-4-4--4--4-4-4-4-4-4--6--6-6-6-6-6-6--4x4--4-4-4--4-4-6-6-|
|-----------------4--4-4-4-4-4-4------------------2--2-2-2-2-2-2------------------4--4-4-4-4-4-4--2x2--2-2-2------4-4-|


And after all that craziness, you jus play the beginning solo again..
only faster and more badass like.
Then repeat whatever needs to be repeated and end on this riff:

|---------------------------------------------------------------------------------------------------|
|-------6-------------------------6-------------------------6-------------------------6-----6-------|
|-----6---6----------5----------6---6----------3----------6---6----------5--------------6-----6---6-|
|---6-------6------6---6------6-------6------4---4------6-------6------6---6--------6-----6-----6---|
|-4--------------6-------6--4--------------4-------4--4--------------6-------6----6-----------------|
|--------------4-------------------------2-------------------------4------------4-------------------|

-Tabbed by Eric Brown
Comments