Guttermouth - Disneyland Chords & Tabs

 

Disneyland Chords & Tabs

Guttermouth Chords & Tabs

Version: 1 Type: Tab 0 ratings
1 star 2 stars 3 stars 4 stars 5 stars
comments

Disneyland Tab

DISNEYLAND BY : GUTTERMOUTH
TABBED BY ROBERT LAURITSON

This is an awesome song by Guttermouth I tabbed out and if any of you
others have tabbed out any Guttermouth songs I encourage you to put them
on " ftp.nevada.edu " or " ftp.uwp.edu "

Verses :

    "get  pissed  you  suck ,  I  know  your  kind "
E|------------------------------------------------------------------------|
B|------------------------------------------------------------------------|
G|------------------------------------------------------------------------|
D|----9---9---9---9---9---9-------6-----7-----6---------------------------|
A|----9---9---9---9---9---9-------6-----7-----6---------------------------|
E|----7---7---7---7---7---7-------4-----5-----4---------------------------|
[ Tab from: http://www.guitartabs.cc/tabs/g/guttermouth/disneyland_tab.html ]
   "I  know  the  system  ,  I know it's not so fine "
E|------------------------------------------------------------------------|
B|------------------------------------------------------------------------|
G|--9---9---9---9---9---9-------6-----7-----6-----------------------------|
D|--9---9---9---9---9---9-------6-----7-----6-----------------------------|
A|--7---7---7---7---7---7-------4-----5-----4-----------------------------|
E|------------------------------------------------------------------------|

Chorus :

      Profound that's what I found
      Profound Oh to the ground
      Profound that's what I found
      Why must we chop it the ground

For the Chorus use muted downstrokes until line four then proceed
to do the 4,5,4 on the low E string
E|----------------------------------|-------------------------------------|
B|----------------------------------|-------------------------------------|
G|----------------------------------|-------------------------------------|
D|---9------------------------------|----------------6----7----6----------|
A|---9------------------------------|----------------6----7----6----------|
E|---7------------------------------|----------------4----5----4----------|
    ^                                                           ^
    muted downstrokes at this position until line four then do this 

That's about it if you have any changes feel free to post them but from
what I can tell this is all.

neurd@ix.netcom.com

PUNX NOT DEAD ! -

Comments