Guttermouth - Black Enforcers Chords & Tabs

 

Black Enforcers Chords & Tabs

Guttermouth Chords & Tabs

Version: 2 Type: Tab 0 ratings
1 star 2 stars 3 stars 4 stars 5 stars
comments

Black Enforcers Tab

-----------------------------------------------------------------
			     BLACK ENFORCERS - Guttermouth
-----------------------------------------------------------------

Tabbed by: Robin Krier 
Album: Covered with Ants (Epitaph)

Obviously there are two guitars at work here, but for the most part
they are playing the same thing...

 Bass Intro		    x2 Guitar			x6
e|---------------------------|---------------------------|
B|---------------------------|---------------------------|
G|---------------------------|-9--9-9-9--9-9-9--9-9-9-10-|
D|---------------------------|-x--x-x-x--x-x-x--x-x-x--x-|
A|---------------------------|-7--7-7-7--7-7-7--7-7-7--8-|
E|-5--5-5-5--5-5-5--5-5-5--3-|---------------------------|

 verse: "We, run, with the night..." x4
e|-----------------------------------|
B|-----------------------------------|
G|-----9---10---9-------9--10--------|
D|-7---9---10---9---7---9--10--10-9--|
A|-7---7----8---7---7---7---8--10-9--|
E|-5----------------5-----------8-7--|
[ Tab from: http://www.guitartabs.cc/tabs/g/guttermouth/black_enforcers_tab_ver_2.html ]
 chorus: "Got, got, got no pity...
e|--------------------------------------------------------|
B|--------------------------------------------------------|
G|-------------------------------9--9--9-9-9--9--9--9-9-9-|
D|-7--7--7-7-7-10--10--10-10-10--9--9--9-9-9--9--9--9-9-9-|
A|-7--7--7-7-7-10--10--10-10-10--7--7--7-7-7--7--7--7-7-7-|
E|-5--5--5-5-5--8---8---8--8--8---------------------------|
					                  x2
e|---------------------------------------------------------|
B|--------------------------------------------------10-----|
G|-------------------------------9--9--9-9-9--9--9--10-9-9-|
D|-7--7--7-7-7-10--10--10-10-10--9--9--9-9-9--9--9--10-9-9-|
A|-7--7--7-7-7-10--10--10-10-10--7--7--7-7-7--7--7---8-7-7-|
E|-5--5--5-5-5--8---8---8--8--8----------------------------|

 after second time playing chorus
                x8
e|----------------|------------------------|----------------|
B|----------------|------------------------|----------------|
G|-------8--8-7-5-|------------------------|-9--------10-9--|
D|-5\-7--8--8-7-5-|-7----------------------|-x---------x-x--|
A|-5\-7--6--6-5-3-|-7----------------------|-7---------8-7--|
E|-3\-5-----------|-5----------------------|----------------|

 then play this lead when it returns to the verse
e|---------------------------------|
B|---------------------------------|
G|--9--9-9--9--9-9--12--11--9--11--| x4
D|---------------------------------|
A|---------------------------------|
E|---------------------------------|
Comments