Guthrie Woodie - Baltimore To Washington Chords & Tabs

 

Baltimore To Washington Chords & Tabs

Guthrie Woodie Chords & Tabs

Version: 1 Type: Tab 0 ratings
1 star 2 stars 3 stars 4 stars 5 stars
comments

Baltimore To Washington Tab

   
#----------------------------------PLEASE NOTE---------------------------------#
#This file is the author's own work and represents their interpretation of the #
#song. You may only use this file for private study, scholarship, or research. #
#------------------------------------------------------------------------------##
Received: from animal-farm.nevada.edu by redrock.nevada.edu (5.65c/M1.4)
with SMTP id ; Wed, 24 Feb 1993 10:07:22 -0800
Received: from madrone.eecs.ucdavis.edu by animal-farm.nevada.edu id ; Wed, 24 Feb 1993 10:07:16 -0800
Received: by madrone.eecs.ucdavis.edu (5.57/Ultrix3.0-C/eecs 1.1)
id AA01290; Wed, 24 Feb 93 10:07:08 -0800
Date: Wed, 24 Feb 93 10:07:08 -0800
From: darsie@eecs.ucdavis.edu (Richard Darsie)
Message-Id: 
To: jamesb@animal-farm.nevada.edu
Subject: Tab: Woody Guthrie, "Baltimore to Washington"


Title: BALTIMORE TO WASHINGTON
Notes: WRITTEN/RECORDED BY WOODY GUTHRIE   arr. by Kev
Should be "lively" to fast.
Tuning:EADGBE

               C
------------|--3--------3-----3-----3------3-s-5--0----------------------|--
------------|--|--------|-----|-----|------|------|---3---1--------------|--
------------|--|--------|-----|-----|------|------|-------|-------0------|--
------------|--|---2----|--2--|--2--|--2---|------|-------|--2-------2---|--
------0--2--|--3--------|-----3-----|------3------3-------3--------------|--
---3--------|-----------3-----------3---------------------------3--------|--
    

    F                           C
-----------------------------|--0--------0-------------0-------|--------------
---------1*------3w----1-----|--|--------|---3w--1-----|-------|--------------
----2------------|-----|-----|--|---0----|-------|-----|-------|--------------
----|--3------3--|--3--|--3--|--|--------|-------|--2--|---2---|--------------
----|------------|-----|-----|--3--------3-------3-----3-------|--------------
----1------1-----1-----1-----|---------------------------------|--------------
   
[ Tab from: http://www.guitartabs.cc/tabs/g/guthrie_woodie/baltimore_to_washington_tab.html ]
  G                                  C
-----------------5p3--------------|-------------------|------------|----------
--3--------------|-------5p3------|--1-------------1--|------------|----------
--|--------4-----|-------|--------|--|-------0-----|--|------------|----------
--|--5--------5--|---5---|-----5--|--|--2-------2--|--|------------|----------
--|--------------|-------|--------|--3-------------3--|--3--2--1---|----------
--3-----3--------3-------3--------|--------3----------|------------|----------
 

  F                              C                 F   Br
------------------------------|-----------------|------|----------------------
--------1------3w------1------|--1-----------1--|------|------------3w--------
--2-----|------|-------|------|--|-----0-----|--|--2---|-----2------|---------
--|--3--|---3--|---3---|----3-|--|--2-----2--|--|--|---|--------3---|---------
--|-----|------|-------|------|--3-----------3--|--|----------------|---------
--1-----1------1-------1------|--------3--------|--1------1---------1---------
  Oh   Balti- more to Wash-ing- ton          

                C                               F
--------------|--0-------------0-------------|--------------------------------
------1-------|--|-------1-----|-------1-----|--------1-----3-----------------
------|-------|--|-------------|-------------|--2-----|-----|-----------------
--3---|---3---|--|--2-------2--|--2-------2--|--|--3--|--3--|---3-------------
------|-------|--3-------------3-------------|--|-----|-----|-----------------
------1-------|--------3-------------3-------|--1-----1-----1-----------------
  

             C                              G
----------|--0---------------------------|-------------------------|----------
--1-------|--|--------1-----------1------|--3--------3-----5p3-----|----------
--|-------|--|--------------------|------|--|--------------|-------|----------
--|----3--|--|--2--------2-----2--|---2--|--|--3--------3--|---3---|----------
--|-------|--3--------------3-----3------|--|--------------|-------|----------
--1-------|--------3---------------------|--3-----3--------3-------|----------
 Wash-ing-  ton          

  G7        C
---------|--------------------|-----------------------------------------------
--0------|--1--------------1--|-----------------------------------------------
--|------|--|--------0-----|--|-----------------------------------------------
--|---0--|--|--2--------2--|--|-----------------------------------------------
--|------|--3--------------3--|-----------------------------------------------
--3------|--------3-----------|-----------------------------------------------


Explanatory notes:   *  Indicates a "grace" note
                     p  is a pull-off
                     w  is a slur -I use SG's term of "wham" to avoid
confusion with:      s  slide from 1st to 2nd note
                     Br is a "brush" across the strings shown
Comments