Guthrie Arlo - Wouldn' You Believe It Chords & Tabs

 

Wouldn' You Believe It Chords & Tabs

Guthrie Arlo Chords & Tabs

Version: 1 Type: Tab 0 ratings
1 star 2 stars 3 stars 4 stars 5 stars
comments

Wouldn' You Believe It Tab

   
----------------------------------PLEASE NOTE--------------------------------#
#This file is the author's own work and represents their interpretation of the#
#song. You may only use this file for private study, scholarship, or research.#
#-----------------------------------------------------------------------------#

Date: Sat, 18 Apr 1998 17:42:00 +0200
From: Gil Bates 
Subject: g/guthrie_arlo/wouldnt_you_believe_it.crd

For all the Arlo's fans,
Here's that old Arlo's song (1968), as I heard it, and transcribed long
time ago (1978).
Any corrections would be appreciated
Gil Bates


Wouldn' You Believe It
Arlo Guthrie

Key Cm so Capo third

Wouldn' You Believe It
Arlo Guthrie 1968

Chords Intro
Am///Fmaj7//Am//E7//Am//Fmaj7////Am//

Tab Intro
Capo 3
so Tuning : G C F A# D G  Time Signature 4/4

 |       |       |       |        |       |       |       |
|--------------------------------|--------0---------------0-------|
|--------------------------------|--------0---------------0-------|
|--------------------------------|--------2---------------2-------|
|--------------------------------|--------2---------------2-------|
|--------------------------------|0---------------0---------------|
|0-------0-------0-------3-------|--------------------------------|

 |       |       |       |        |       |       |       |
|--------0---------------0-------|--------0---------------0-------|
|--------0---------------0-------|--------1---------------1-------|
|--------2---------------2-------|--------2---------------2-------|
|--------2---------------2-------|--------3---------------3-------|
|0-------------------------------|1---------------1---------------|
|----------------0---3-----------|--------------------------------|

 |       |       |       |        |       |       |       |
|--------0---------------0-------|--------0---------------0-------|
|--------1---------------1-------|--------0---------------0-------|
|--------2---------------2-------|--------2---------------2-------|
|--------3---------------3-------|--------2---------------2-------|
|1-------------------------------|0---------------0---------------|
|----------------1---3-----------|--------------------------------|
[ Tab from: http://www.guitartabs.cc/tabs/g/guthrie_arlo/wouldn_you_believe_it_tab.html ]
 |       |       |       |        |       |       |       |
|--------0---------------0-------|--------0---------------0-------|
|--------0---------------0-------|--------0---------------0-------|
|--------2---------------2-------|--------1---------------1-------|
|--------2---------------2-------|--------0-------2---3-----------|
|0-------------------------------|0-------2-----------------------|
|----------------0---3-----------|--------------------------------|

 |       |       |       |        |       |       |       |
|--------0-----------------------|--------0---------------0-------|
|--------0-----------------------|--------0---------------0-------|
|2---0---1-----------------------|--------2---------------2-------|
|--------------------------------|--------2---------------2-------|
|----------------3-------2-------|0---------------0---------------|
|--------------------------------|--------------------------------|

 |       |       |       |        |       |       |       |
|--------0---------------0-------|--------0---------------0-------|
|--------0---------------0-------|--------1---------------1-------|
|--------2---------------2-------|--------2---------------2-------|
|--------2---------------2-------|--------3---------------3-------|
|0-------------------------------|1---------------1---------------|
|----------------0---3-----------|--------------------------------|

 |       |       |       |        |       |       |       |
|--------0---------------0-------|--------------------------------|
|--------1---------------1-------|--------------------------------|
|--------2---------------2-------|--------------------------------|
|--------3---------------3-------|------------------------0---1---|
|1---------------1---------------|0---2---2-------3---------------|
|--------------------------------|--------------------------------|

 |       |       |       |        |       |       |       |
|--------------------------------|--------0---------------0-------|
|--------------------------------|--------0---------------0-------|
|----2---------------------------|--------2---------------2-------|
|2-------2---1---0---------------|--------2---------------2-------|
|--------------------3---0-------|0---------------0---------------|
|----------------------------3---|--------------------------------|

 |       |       |       |
|--------0---------------0-------|
|--------0---------------0-------|
|--------2---------------2-------|
|--------2---------------2-------|
|0-------------------------------|
|----------------0---3-----------|
Comments